  0
SECTION
  2
HEADER
  9
$ACADVER
  1
AC1015
  9
$ACADMAINTVER
 70
    18
  9
$DWGCODEPAGE
  3
ANSI_1252
  9
$INSBASE
 10
0.0
 20
0.0
 30
0.0
  9
$EXTMIN
 10
-216.3381950747433
 20
-492.3730314979016
 30
-0.0015258207003583
  9
$EXTMAX
 10
237.5573738123726
 20
587.5919504926912
 30
0.0000000349246037
  9
$LIMMIN
 10
0.0
 20
0.0
  9
$LIMMAX
 10
420.0
 20
297.0
  9
$ORTHOMODE
 70
     0
  9
$REGENMODE
 70
     1
  9
$FILLMODE
 70
     1
  9
$QTEXTMODE
 70
     0
  9
$MIRRTEXT
 70
     0
  9
$LTSCALE
 40
1.0
  9
$ATTMODE
 70
     1
  9
$TEXTSIZE
 40
2.5
  9
$TRACEWID
 40
1.0
  9
$TEXTSTYLE
  7
Standard
  9
$CLAYER
  8
0
  9
$CELTYPE
  6
ByLayer
  9
$CECOLOR
 62
   256
  9
$CELTSCALE
 40
1.0
  9
$DISPSILH
 70
     0
  9
$DIMSCALE
 40
1.0
  9
$DIMASZ
 40
2.5
  9
$DIMEXO
 40
0.625
  9
$DIMDLI
 40
3.75
  9
$DIMRND
 40
0.0
  9
$DIMDLE
 40
0.0
  9
$DIMEXE
 40
1.25
  9
$DIMTP
 40
0.0
  9
$DIMTM
 40
0.0
  9
$DIMTXT
 40
2.5
  9
$DIMCEN
 40
2.5
  9
$DIMTSZ
 40
0.0
  9
$DIMTOL
 70
     0
  9
$DIMLIM
 70
     0
  9
$DIMTIH
 70
     0
  9
$DIMTOH
 70
     0
  9
$DIMSE1
 70
     0
  9
$DIMSE2
 70
     0
  9
$DIMTAD
 70
     1
  9
$DIMZIN
 70
     8
  9
$DIMBLK
  1

  9
$DIMASO
 70
     1
  9
$DIMSHO
 70
     1
  9
$DIMPOST
  1

  9
$DIMAPOST
  1

  9
$DIMALT
 70
     0
  9
$DIMALTD
 70
     3
  9
$DIMALTF
 40
0.03937007874016
  9
$DIMLFAC
 40
1.0
  9
$DIMTOFL
 70
     1
  9
$DIMTVP
 40
0.0
  9
$DIMTIX
 70
     0
  9
$DIMSOXD
 70
     0
  9
$DIMSAH
 70
     0
  9
$DIMBLK1
  1

  9
$DIMBLK2
  1

  9
$DIMSTYLE
  2
ISO-25
  9
$DIMCLRD
 70
     0
  9
$DIMCLRE
 70
     0
  9
$DIMCLRT
 70
     0
  9
$DIMTFAC
 40
1.0
  9
$DIMGAP
 40
0.625
  9
$DIMJUST
 70
     0
  9
$DIMSD1
 70
     0
  9
$DIMSD2
 70
     0
  9
$DIMTOLJ
 70
     0
  9
$DIMTZIN
 70
     8
  9
$DIMALTZ
 70
     0
  9
$DIMALTTZ
 70
     0
  9
$DIMUPT
 70
     0
  9
$DIMDEC
 70
     2
  9
$DIMTDEC
 70
     2
  9
$DIMALTU
 70
     2
  9
$DIMALTTD
 70
     3
  9
$DIMTXSTY
  7
Standard
  9
$DIMAUNIT
 70
     0
  9
$DIMADEC
 70
     0
  9
$DIMALTRND
 40
0.0
  9
$DIMAZIN
 70
     0
  9
$DIMDSEP
 70
    44
  9
$DIMATFIT
 70
     3
  9
$DIMFRAC
 70
     0
  9
$DIMLDRBLK
  1

  9
$DIMLUNIT
 70
     2
  9
$DIMLWD
 70
    -2
  9
$DIMLWE
 70
    -2
  9
$DIMTMOVE
 70
     0
  9
$LUNITS
 70
     2
  9
$LUPREC
 70
     4
  9
$SKETCHINC
 40
1.0
  9
$FILLETRAD
 40
0.0
  9
$AUNITS
 70
     0
  9
$AUPREC
 70
     0
  9
$MENU
  1
.
  9
$ELEVATION
 40
0.0
  9
$PELEVATION
 40
0.0
  9
$THICKNESS
 40
0.0
  9
$LIMCHECK
 70
     0
  9
$CHAMFERA
 40
0.0
  9
$CHAMFERB
 40
0.0
  9
$CHAMFERC
 40
0.0
  9
$CHAMFERD
 40
0.0
  9
$SKPOLY
 70
     0
  9
$TDCREATE
 40
2460105.576319445
  9
$TDUCREATE
 40
2460105.284652778
  9
$TDUPDATE
 40
2460105.582719908
  9
$TDUUPDATE
 40
2460105.291053241
  9
$TDINDWG
 40
0.0012384259
  9
$TDUSRTIMER
 40
0.0012384259
  9
$USRTIMER
 70
     1
  9
$ANGBASE
 50
0.0
  9
$ANGDIR
 70
     0
  9
$PDMODE
 70
     0
  9
$PDSIZE
 40
0.0
  9
$PLINEWID
 40
0.0
  9
$SPLFRAME
 70
     0
  9
$SPLINETYPE
 70
     6
  9
$SPLINESEGS
 70
     8
  9
$HANDSEED
  5
122BE
  9
$SURFTAB1
 70
     6
  9
$SURFTAB2
 70
     6
  9
$SURFTYPE
 70
     6
  9
$SURFU
 70
     6
  9
$SURFV
 70
     6
  9
$UCSBASE
  2

  9
$UCSNAME
  2

  9
$UCSORG
 10
0.0
 20
0.0
 30
0.0
  9
$UCSXDIR
 10
1.0
 20
0.0
 30
0.0
  9
$UCSYDIR
 10
0.0
 20
1.0
 30
0.0
  9
$UCSORTHOREF
  2

  9
$UCSORTHOVIEW
 70
     0
  9
$UCSORGTOP
 10
0.0
 20
0.0
 30
0.0
  9
$UCSORGBOTTOM
 10
0.0
 20
0.0
 30
0.0
  9
$UCSORGLEFT
 10
0.0
 20
0.0
 30
0.0
  9
$UCSORGRIGHT
 10
0.0
 20
0.0
 30
0.0
  9
$UCSORGFRONT
 10
0.0
 20
0.0
 30
0.0
  9
$UCSORGBACK
 10
0.0
 20
0.0
 30
0.0
  9
$PUCSBASE
  2

  9
$PUCSNAME
  2

  9
$PUCSORG
 10
0.0
 20
0.0
 30
0.0
  9
$PUCSXDIR
 10
1.0
 20
0.0
 30
0.0
  9
$PUCSYDIR
 10
0.0
 20
1.0
 30
0.0
  9
$PUCSORTHOREF
  2

  9
$PUCSORTHOVIEW
 70
     0
  9
$PUCSORGTOP
 10
0.0
 20
0.0
 30
0.0
  9
$PUCSORGBOTTOM
 10
0.0
 20
0.0
 30
0.0
  9
$PUCSORGLEFT
 10
0.0
 20
0.0
 30
0.0
  9
$PUCSORGRIGHT
 10
0.0
 20
0.0
 30
0.0
  9
$PUCSORGFRONT
 10
0.0
 20
0.0
 30
0.0
  9
$PUCSORGBACK
 10
0.0
 20
0.0
 30
0.0
  9
$USERI1
 70
     0
  9
$USERI2
 70
     0
  9
$USERI3
 70
     0
  9
$USERI4
 70
     0
  9
$USERI5
 70
     0
  9
$USERR1
 40
0.0
  9
$USERR2
 40
0.0
  9
$USERR3
 40
0.0
  9
$USERR4
 40
0.0
  9
$USERR5
 40
0.0
  9
$WORLDVIEW
 70
     1
  9
$SHADEDGE
 70
     3
  9
$SHADEDIF
 70
    70
  9
$TILEMODE
 70
     1
  9
$MAXACTVP
 70
    48
  9
$PINSBASE
 10
0.0
 20
0.0
 30
0.0
  9
$PLIMCHECK
 70
     0
  9
$PEXTMIN
 10
0.0
 20
0.0
 30
0.0
  9
$PEXTMAX
 10
0.0
 20
0.0
 30
0.0
  9
$PLIMMIN
 10
0.0
 20
0.0
  9
$PLIMMAX
 10
12.0
 20
9.0
  9
$UNITMODE
 70
     0
  9
$VISRETAIN
 70
     1
  9
$PLINEGEN
 70
     0
  9
$PSLTSCALE
 70
     1
  9
$TREEDEPTH
 70
  3020
  9
$CMLSTYLE
  2
Standard
  9
$CMLJUST
 70
     0
  9
$CMLSCALE
 40
20.0
  9
$PROXYGRAPHICS
 70
     1
  9
$MEASUREMENT
 70
     1
  9
$CELWEIGHT
370
    -1
  9
$ENDCAPS
280
     0
  9
$JOINSTYLE
280
     0
  9
$LWDISPLAY
290
     0
  9
$INSUNITS
 70
     4
  9
$HYPERLINKBASE
  1

  9
$STYLESHEET
  1

  9
$XEDIT
290
     1
  9
$CEPSNTYPE
380
     0
  9
$PSTYLEMODE
290
     1
  9
$FINGERPRINTGUID
  2
{61A4B8EA-1705-6D48-8B0C-22EBBF73F8CA}
  9
$VERSIONGUID
  2
{2EDD7B87-3E24-C84A-80F7-769AEC5C07E7}
  9
$EXTNAMES
290
     1
  9
$PSVPSCALE
 40
0.0
  9
$OLESTARTUP
290
     0
  0
ENDSEC
  0
SECTION
  2
CLASSES
  0
CLASS
  1
ACDBDICTIONARYWDFLT
  2
AcDbDictionaryWithDefault
  3
ObjectDBX Classes
 90
        0
280
     0
281
     0
  0
CLASS
  1
ACDBPLACEHOLDER
  2
AcDbPlaceHolder
  3
ObjectDBX Classes
 90
        0
280
     0
281
     0
  0
CLASS
  1
LAYOUT
  2
AcDbLayout
  3
ObjectDBX Classes
 90
        0
280
     0
281
     0
  0
CLASS
  1
DICTIONARYVAR
  2
AcDbDictionaryVar
  3
ObjectDBX Classes
 90
        0
280
     0
281
     0
  0
CLASS
  1
TABLESTYLE
  2
AcDbTableStyle
  3
ObjectDBX Classes
 90
     4095
280
     0
281
     0
  0
CLASS
  1
MATERIAL
  2
AcDbMaterial
  3
ObjectDBX Classes
 90
     1153
280
     0
281
     0
  0
CLASS
  1
VISUALSTYLE
  2
AcDbVisualStyle
  3
ObjectDBX Classes
 90
     4095
280
     0
281
     0
  0
CLASS
  1
SCALE
  2
AcDbScale
  3
ObjectDBX Classes
 90
     1153
280
     0
281
     0
  0
CLASS
  1
MLEADERSTYLE
  2
AcDbMLeaderStyle
  3
ACDB_MLEADERSTYLE_CLASS
 90
     4095
280
     0
281
     0
  0
CLASS
  1
CELLSTYLEMAP
  2
AcDbCellStyleMap
  3
ObjectDBX Classes
 90
     1152
280
     0
281
     0
  0
CLASS
  1
EXACXREFPANELOBJECT
  2
ExAcXREFPanelObject
  3
EXAC_ESW
 90
    33793
280
     0
281
     0
  0
CLASS
  1
NPOCOLLECTION
  2
AcDbImpNonPersistentObjectsCollection
  3
ObjectDBX Classes
 90
    33921
280
     0
281
     0
  0
CLASS
  1
LAYER_INDEX
  2
AcDbLayerIndex
  3
ObjectDBX Classes
 90
    32768
280
     0
281
     0
  0
CLASS
  1
SPATIAL_INDEX
  2
AcDbSpatialIndex
  3
ObjectDBX Classes
 90
    32768
280
     0
281
     0
  0
CLASS
  1
IDBUFFER
  2
AcDbIdBuffer
  3
ObjectDBX Classes
 90
    32768
280
     0
281
     0
  0
CLASS
  1
ACDBSECTIONVIEWSTYLE
  2
AcDbSectionViewStyle
  3
ObjectDBX Classes
 90
     1025
280
     0
281
     0
  0
CLASS
  1
ACDBDETAILVIEWSTYLE
  2
AcDbDetailViewStyle
  3
ObjectDBX Classes
 90
     1025
280
     0
281
     0
  0
CLASS
  1
XRECORD
  2
AcDbXrecord
  3
ObjectDBX Classes
 90
        0
280
     0
281
     0
  0
ENDSEC
  0
SECTION
  2
TABLES
  0
TABLE
  2
VPORT
  5
8
102
{ACAD_XDICTIONARY
360
121CC
102
}
330
0
100
AcDbSymbolTable
 70
     1
  0
VPORT
  5
EA
330
8
100
AcDbSymbolTableRecord
100
AcDbViewportTableRecord
  2
*Active
 70
     0
 10
0.0
 20
0.0
 11
1.0
 21
1.0
 12
10.60958936881462
 22
47.60945949739488
 13
0.0
 23
0.0
 14
10.0
 24
10.0
 15
10.0
 25
10.0
 16
0.0
 26
0.0
 36
1.0
 17
0.0
 27
0.0
 37
0.0
 40
1148.444888339197
 41
0.9846153846153846
 42
50.0
 43
0.0
 44
0.0
 50
0.0
 51
0.0
 71
     0
 72
  1000
 73
     1
 74
     3
 75
     0
 76
     1
 77
     0
 78
     0
281
     0
 65
     1
110
0.0
120
0.0
130
0.0
111
1.0
121
0.0
131
0.0
112
0.0
122
1.0
132
0.0
 79
     0
146
0.0
1001
ACAD_NAV_VCDISPLAY
1070
     3
  0
ENDTAB
  0
TABLE
  2
LTYPE
  5
5
330
0
100
AcDbSymbolTable
 70
     1
  0
LTYPE
  5
14
330
5
100
AcDbSymbolTableRecord
100
AcDbLinetypeTableRecord
  2
ByBlock
 70
     0
  3

 72
    65
 73
     0
 40
0.0
  0
LTYPE
  5
15
330
5
100
AcDbSymbolTableRecord
100
AcDbLinetypeTableRecord
  2
ByLayer
 70
     0
  3

 72
    65
 73
     0
 40
0.0
  0
LTYPE
  5
16
330
5
100
AcDbSymbolTableRecord
100
AcDbLinetypeTableRecord
  2
Continuous
 70
     0
  3
Solid line
 72
    65
 73
     0
 40
0.0
  0
ENDTAB
  0
TABLE
  2
LAYER
  5
2
102
{ACAD_XDICTIONARY
360
1FF
102
}
330
0
100
AcDbSymbolTable
 70
     1
  0
LAYER
  5
10
102
{ACAD_XDICTIONARY
360
13C
102
}
330
2
100
AcDbSymbolTableRecord
100
AcDbLayerTableRecord
  2
0
 70
     0
 62
     7
  6
Continuous
370
    -3
390
F
  0
ENDTAB
  0
TABLE
  2
STYLE
  5
3
330
0
100
AcDbSymbolTable
 70
     1
  0
STYLE
  5
11
330
3
100
AcDbSymbolTableRecord
100
AcDbTextStyleTableRecord
  2
Standard
 70
     0
 40
0.0
 41
1.0
 50
0.0
 71
     0
 42
2.5
  3
arial.ttf
  4

1001
ACAD
1000
Arial
1071
       34
  0
ENDTAB
  0
TABLE
  2
VIEW
  5
6
330
0
100
AcDbSymbolTable
 70
     0
  0
ENDTAB
  0
TABLE
  2
UCS
  5
7
330
0
100
AcDbSymbolTable
 70
     0
  0
ENDTAB
  0
TABLE
  2
APPID
  5
9
330
0
100
AcDbSymbolTable
 70
     8
  0
APPID
  5
12
330
9
100
AcDbSymbolTableRecord
100
AcDbRegAppTableRecord
  2
ACAD
 70
     0
  0
APPID
  5
9E
330
9
100
AcDbSymbolTableRecord
100
AcDbRegAppTableRecord
  2
ACAD_PSEXT
 70
     0
  0
APPID
  5
133
330
9
100
AcDbSymbolTableRecord
100
AcDbRegAppTableRecord
  2
AcadAnnoPO
 70
     0
  0
APPID
  5
134
330
9
100
AcDbSymbolTableRecord
100
AcDbRegAppTableRecord
  2
AcadAnnotative
 70
     0
  0
APPID
  5
135
330
9
100
AcDbSymbolTableRecord
100
AcDbRegAppTableRecord
  2
ACAD_DSTYLE_DIMJAG
 70
     0
  0
APPID
  5
136
330
9
100
AcDbSymbolTableRecord
100
AcDbRegAppTableRecord
  2
ACAD_DSTYLE_DIMTALN
 70
     0
  0
APPID
  5
165
330
9
100
AcDbSymbolTableRecord
100
AcDbRegAppTableRecord
  2
ACAD_MLEADERVER
 70
     0
  0
APPID
  5
217
330
9
100
AcDbSymbolTableRecord
100
AcDbRegAppTableRecord
  2
ACAD_NAV_VCDISPLAY
 70
     0
  0
ENDTAB
  0
TABLE
  2
DIMSTYLE
  5
A
330
0
100
AcDbSymbolTable
 70
     1
100
AcDbDimStyleTable
 71
     0
  0
DIMSTYLE
105
27
330
A
100
AcDbSymbolTableRecord
100
AcDbDimStyleTableRecord
  2
ISO-25
 70
     0
 41
2.5
 42
0.625
 43
3.75
 44
1.25
 73
     0
 74
     0
 77
     1
 78
     8
140
2.5
141
2.5
143
0.03937007874016
147
0.625
171
     3
172
     1
271
     2
272
     2
274
     3
278
    44
283
     0
284
     8
340
11
  0
ENDTAB
  0
TABLE
  2
BLOCK_RECORD
  5
1
330
0
100
AcDbSymbolTable
 70
     7
  0
BLOCK_RECORD
  5
1F
102
{ACAD_XDICTIONARY
360
1CE
102
}
330
1
100
AcDbSymbolTableRecord
100
AcDbBlockTableRecord
  2
*Model_Space
340
22
  0
BLOCK_RECORD
  5
D2
102
{ACAD_XDICTIONARY
360
1217F
102
}
330
1
100
AcDbSymbolTableRecord
100
AcDbBlockTableRecord
  2
*Paper_Space
340
D3
  0
BLOCK_RECORD
  5
D6
102
{ACAD_XDICTIONARY
360
12181
102
}
330
1
100
AcDbSymbolTableRecord
100
AcDbBlockTableRecord
  2
*Paper_Space0
340
D7
  0
BLOCK_RECORD
  5
11FC7
330
1
100
AcDbSymbolTableRecord
100
AcDbBlockTableRecord
  2
HTT5-Front
340
0
102
{BLKREFS
331
12175
102
}
  0
BLOCK_RECORD
  5
12014
330
1
100
AcDbSymbolTableRecord
100
AcDbBlockTableRecord
  2
HTT5-Left
340
0
102
{BLKREFS
331
12176
102
}
  0
BLOCK_RECORD
  5
1203F
330
1
100
AcDbSymbolTableRecord
100
AcDbBlockTableRecord
  2
HTT5-Right
340
0
102
{BLKREFS
331
12177
102
}
  0
BLOCK_RECORD
  5
1206C
330
1
100
AcDbSymbolTableRecord
100
AcDbBlockTableRecord
  2
HTT5-Top
340
0
102
{BLKREFS
331
12178
102
}
  0
BLOCK_RECORD
  5
120AA
330
1
100
AcDbSymbolTableRecord
100
AcDbBlockTableRecord
  2
HTT5-Bottom
340
0
102
{BLKREFS
331
12179
102
}
  0
BLOCK_RECORD
  5
120DA
330
1
100
AcDbSymbolTableRecord
100
AcDbBlockTableRecord
  2
HTT5-ISO
340
0
102
{BLKREFS
331
1217A
102
}
  0
ENDTAB
  0
ENDSEC
  0
SECTION
  2
BLOCKS
  0
BLOCK
  5
20
330
1F
100
AcDbEntity
  8
0
100
AcDbBlockBegin
  2
*Model_Space
 70
     0
 10
0.0
 20
0.0
 30
0.0
  3
*Model_Space
  1

  0
ENDBLK
  5
21
330
1F
100
AcDbEntity
  8
0
100
AcDbBlockEnd
  0
BLOCK
  5
D4
330
D2
100
AcDbEntity
 67
     1
  8
0
100
AcDbBlockBegin
  2
*Paper_Space
 70
     0
 10
0.0
 20
0.0
 30
0.0
  3
*Paper_Space
  1

  0
ENDBLK
  5
D5
330
D2
100
AcDbEntity
 67
     1
  8
0
100
AcDbBlockEnd
  0
BLOCK
  5
D8
330
D6
100
AcDbEntity
 67
     1
  8
0
100
AcDbBlockBegin
  2
*Paper_Space0
 70
     0
 10
0.0
 20
0.0
 30
0.0
  3
*Paper_Space0
  1

  0
ENDBLK
  5
D9
330
D6
100
AcDbEntity
 67
     1
  8
0
100
AcDbBlockEnd
  0
BLOCK
  5
11FC8
330
11FC7
100
AcDbEntity
  8
0
100
AcDbBlockBegin
  2
HTT5-Front
 70
     0
 10
0.0
 20
0.0
 30
0.0
  3
HTT5-Front
  1

  0
ARC
  5
11FCA
330
11FC7
100
AcDbEntity
  8
0
100
AcDbCircle
 10
-23.65459907305348
 20
8.580531783847025
 30
0.0
 40
2.844800000000001
100
AcDbArc
 50
180.9999999999995
 51
182.0003047799144
  0
LINE
  5
11FCB
330
11FC7
100
AcDbEntity
  8
0
100
AcDbLine
 10
-29.1175033646282
 20
158.5468
 30
0.0
 11
-26.49896579623439
 21
8.530883178014256
 31
0.0
  0
LINE
  5
11FCC
330
11FC7
100
AcDbEntity
  8
0
100
AcDbLine
 10
-29.34333251941529
 20
8.481234572181453
 30
0.0
 11
-31.96273670744751
 21
158.5468
 31
0.0
  0
LINE
  5
11FCD
330
11FC7
100
AcDbEntity
  8
0
100
AcDbLine
 10
-26.49766556959475
 20
8.481234572181453
 30
0.0
 11
-29.34333251941529
 21
8.481234572181453
 31
0.0
  0
ARC
  5
11FCE
330
11FC7
100
AcDbEntity
  8
0
100
AcDbCircle
 10
-23.65459907305349
 20
8.580531783847016
 30
0.0
 40
2.844799999999991
100
AcDbArc
 50
182.0003047799144
 51
252.1577114718429
  0
ARC
  5
11FCF
330
11FC7
100
AcDbEntity
  8
0
100
AcDbCircle
 10
-23.65459907305349
 20
8.580531783847026
 30
0.0
 40
5.689599999999997
100
AcDbArc
 50
180.9999999999991
 51
261.1876419826848
  0
SPLINE
  5
11FD0
330
11FC7
100
AcDbEntity
  8
0
100
AcDbSpline
210
0.0
220
0.0
230
1.0
 70
     8
 71
     3
 72
    16
 73
    12
 74
     0
 42
0.000000001
 43
0.0000000001
 40
0.0
 40
0.0
 40
0.0
 40
0.0
 40
0.0428423897049165
 40
0.0428423897049165
 40
0.0831477185008952
 40
0.0831477185008952
 40
0.1225143143206055
 40
0.1225143143206055
 40
0.1430971646855523
 40
0.1430971646855523
 40
0.1636604262608854
 40
0.1636604262608854
 40
0.1636604262608854
 40
0.1636604262608854
 10
-25.54927582106264
 20
13.03173459956754
 30
0.0
 10
-25.41394472374328
 20
13.03251005144147
 30
0.0
 10
-25.27814445798977
 20
13.00630914724772
 30
0.0
 10
-25.02959157608807
 20
12.90209386130135
 30
0.0
 10
-24.91896669023329
 20
12.82844560814371
 30
0.0
 10
-24.73302382973438
 20
12.64294003872548
 30
0.0
 10
-24.65916922866427
 20
12.53415778027671
 30
0.0
 10
-24.58101476774946
 20
12.35107396897403
 30
0.0
 10
-24.56056660519244
 20
12.28561168107523
 30
0.0
 10
-24.53314961685015
 20
12.15156680143062
 30
0.0
 10
-24.52624
 20
12.0833381367912
 30
0.0
 10
-24.52624
 20
12.0149359567811
 30
0.0
  0
SPLINE
  5
11FD1
330
11FC7
100
AcDbEntity
  8
0
100
AcDbSpline
210
0.0
220
0.0
230
1.0
 70
     8
 71
     3
 72
    16
 73
    12
 74
     0
 42
0.000000001
 43
0.0000000001
 40
0.0
 40
0.0
 40
0.0
 40
0.0
 40
0.0393055842811337
 40
0.0393055842811337
 40
0.0787112030855569
 40
0.0787112030855569
 40
0.1184454968051015
 40
0.1184454968051015
 40
0.1407236048269712
 40
0.1407236048269712
 40
0.1633022578478116
 40
0.1633022578478116
 40
0.1633022578478116
 40
0.1633022578478116
 10
24.52623999999994
 20
12.0149359567811
 30
0.0
 10
24.52623999999994
 20
12.14595415664455
 30
0.0
 10
24.55160640936143
 20
12.27572691924253
 30
0.0
 10
24.65007226062156
 20
12.51846952933402
 30
0.0
 10
24.72226290910511
 20
12.6289121695736
 30
0.0
 10
24.90430776270975
 20
12.81673389950281
 30
0.0
 10
25.01225405327807
 20
12.89161745937569
 30
0.0
 10
25.19654046786879
 20
12.9735071657114
 30
0.0
 10
25.26522636712665
 20
12.9955671368438
 30
0.0
 10
25.40610037214237
 20
13.02503405949176
 30
0.0
 10
25.4778581875822
 20
13.03214382508047
 30
0.0
 10
25.54927582106258
 20
13.03173459956754
 30
0.0
  0
SPLINE
  5
11FD2
330
11FC7
100
AcDbEntity
  8
0
100
AcDbSpline
210
0.0
220
0.0
230
1.0
 70
     8
 71
     3
 72
    16
 73
    12
 74
     0
 42
0.000000001
 43
0.0000000001
 40
-0.1969447702819867
 40
-0.1969447702819867
 40
-0.1969447702819867
 40
-0.1969447702819867
 40
-0.1738095768900161
 40
-0.1738095768900161
 40
-0.145790935774852
 40
-0.145790935774852
 40
-0.1012418803306714
 40
-0.1012418803306714
 40
-0.0538491035524422
 40
-0.0538491035524422
 40
-0.0193284650332867
 40
-0.0193284650332867
 40
-0.0193284650332867
 40
-0.0193284650332867
 10
-24.52624
 20
12.03203857988899
 30
0.0
 10
-24.52624
 20
12.09885900096466
 30
0.0
 10
-24.53283360860762
 20
12.16547548675334
 30
0.0
 10
-24.56164079216685
 20
12.31003542342826
 30
0.0
 10
-24.58673939180128
 20
12.38679349140668
 30
0.0
 10
-24.67378051073517
 20
12.57503182029937
 30
0.0
 10
-24.74738592320239
 20
12.67751174205003
 30
0.0
 10
-24.92909805145816
 20
12.85439623288162
 30
0.0
 10
-25.03495237872816
 20
12.92290084855818
 30
0.0
 10
-25.22606577023156
 20
13.00536721744427
 30
0.0
 10
-25.31023301330396
 20
13.0295422367636
 30
0.0
 10
-25.39633641432826
 20
13.0429
 30
0.0
  0
LINE
  5
11FD3
330
11FC7
100
AcDbEntity
  8
0
100
AcDbLine
 10
-25.39633641432845
 20
13.0429
 30
0.0
 11
-25.54505524145601
 21
13.0429
 31
0.0
  0
LINE
  5
11FD4
330
11FC7
100
AcDbEntity
  8
0
100
AcDbLine
 10
-24.52624
 20
12.0320385789199
 30
0.0
 11
-24.52624
 21
11.69924000045464
 31
0.0
  0
LINE
  5
11FD5
330
11FC7
100
AcDbEntity
  8
0
100
AcDbLine
 10
25.54505524145603
 20
13.0429
 30
0.0
 11
25.39633641432794
 21
13.0429
 31
0.0
  0
SPLINE
  5
11FD6
330
11FC7
100
AcDbEntity
  8
0
100
AcDbSpline
210
0.0
220
0.0
230
1.0
 70
     8
 71
     3
 72
    16
 73
    12
 74
     0
 42
0.000000001
 43
0.0000000001
 40
-0.1551265878923864
 40
-0.1551265878923864
 40
-0.1551265878923864
 40
-0.1551265878923864
 40
-0.126487070258704
 40
-0.126487070258704
 40
-0.0895242243709724
 40
-0.0895242243709724
 40
-0.0501065644588061
 40
-0.0501065644588061
 40
-0.0221900570286077
 40
-0.0221900570286077
 40
0.0
 40
0.0
 40
0.0
 40
0.0
 10
25.39633641432794
 20
13.04289999999998
 30
0.0
 10
25.32039481690013
 20
13.03111870139657
 30
0.0
 10
25.24295344041039
 20
13.01047555622668
 30
0.0
 10
25.06600835006154
 20
12.93853475254524
 30
0.0
 10
24.96936233666601
 20
12.88116416120285
 30
0.0
 10
24.78707478066101
 20
12.72399742231909
 30
0.0
 10
24.70641966831819
 20
12.62470570080891
 30
0.0
 10
24.60251247512644
 20
12.42929399761721
 30
0.0
 10
24.57026915443732
 20
12.34227467450973
 30
0.0
 10
24.53431795239381
 20
12.17967255577665
 30
0.0
 10
24.52623999999994
 20
12.10599269627122
 30
0.0
 10
24.52623999999994
 20
12.03203857988896
 30
0.0
  0
LINE
  5
11FD7
330
11FC7
100
AcDbEntity
  8
0
100
AcDbLine
 10
24.52623999999994
 20
12.03203857891987
 30
0.0
 11
24.52623999999994
 21
11.69924000045464
 31
0.0
  0
LINE
  5
11FD8
330
11FC7
100
AcDbEntity
  8
0
100
AcDbLine
 10
23.73248999999997
 20
13.0429
 30
0.0
 11
24.52623999999995
 21
13.0429
 31
0.0
  0
LINE
  5
11FD9
330
11FC7
100
AcDbEntity
  8
0
100
AcDbLine
 10
25.39633641432793
 20
13.0429
 30
0.0
 11
24.52624000000011
 21
13.0429
 31
0.0
  0
LINE
  5
11FDA
330
11FC7
100
AcDbEntity
  8
0
100
AcDbLine
 10
-24.52623999999998
 20
13.0429
 30
0.0
 11
-25.39633641432826
 21
13.0429
 31
0.0
  0
LINE
  5
11FDB
330
11FC7
100
AcDbEntity
  8
0
100
AcDbLine
 10
-23.73249000000003
 20
13.0429
 30
0.0
 11
-24.52624
 21
13.0429
 31
0.0
  0
LINE
  5
11FDC
330
11FC7
100
AcDbEntity
  8
0
100
AcDbLine
 10
-24.52623999999986
 20
0.0
 30
0.0
 11
-24.52623999999986
 21
11.69923999999998
 31
0.0
  0
SPLINE
  5
11FDD
330
11FC7
100
AcDbEntity
  8
0
100
AcDbSpline
210
0.0
220
0.0
230
1.0
 70
     8
 71
     3
 72
    16
 73
    12
 74
     0
 42
0.000000001
 43
0.0000000001
 40
0.0351753930425267
 40
0.0351753930425267
 40
0.0351753930425267
 40
0.0351753930425267
 40
0.1112442988749742
 40
0.1112442988749742
 40
0.2224299255202852
 40
0.2224299255202852
 40
0.3336155270249634
 40
0.3336155270249634
 40
0.3908647803495771
 40
0.3908647803495771
 40
0.4481146790159753
 40
0.4481146790159753
 40
0.4481146790159753
 40
0.4481146790159753
 10
-26.55685069807891
 20
13.08511249248559
 30
0.0
 10
-26.52570063025214
 20
13.08004544443621
 30
0.0
 10
-26.46127306352763
 20
13.0755726216879
 30
0.0
 10
-26.22398131287213
 20
13.06584637964906
 30
0.0
 10
-26.01748100359885
 20
13.06129395126648
 30
0.0
 10
-25.49650851063028
 20
13.05391858675371
 30
0.0
 10
-25.18701957328659
 20
13.05116383395264
 30
0.0
 10
-24.67032774283943
 20
13.04770833267394
 30
0.0
 10
-24.48764534511046
 20
13.04666783846468
 30
0.0
 10
-24.11366857114825
 20
13.04471573810049
 30
0.0
 10
-23.92332083167411
 20
13.04380880067297
 30
0.0
 10
-23.73249000000003
 20
13.04289999999998
 30
0.0
  0
SPLINE
  5
11FDE
330
11FC7
100
AcDbEntity
  8
0
100
AcDbSpline
210
0.0
220
0.0
230
1.0
 70
     8
 71
     3
 72
     8
 73
     4
 74
     0
 42
0.000000001
 43
0.0000000001
 40
0.1851893584318067
 40
0.1851893584318067
 40
0.1851893584318067
 40
0.1851893584318067
 40
0.2986648543618077
 40
0.2986648543618077
 40
0.2986648543618077
 40
0.2986648543618077
 10
-25.54927582106264
 20
13.03173459956754
 30
0.0
 10
-25.90622425108058
 20
13.029689272703
 30
0.0
 10
-26.25067023601054
 20
13.02785545955883
 30
0.0
 10
-26.57743440495345
 20
13.0263441921096
 30
0.0
  0
LINE
  5
11FDF
330
11FC7
100
AcDbEntity
  8
0
100
AcDbLine
 10
24.52623999999979
 20
0.0
 30
0.0
 11
24.52623999999979
 21
11.69923999999998
 31
0.0
  0
SPLINE
  5
11FE0
330
11FC7
100
AcDbEntity
  8
0
100
AcDbSpline
210
0.0
220
0.0
230
1.0
 70
     8
 71
     3
 72
     8
 73
     4
 74
     0
 42
0.000000001
 43
0.0000000001
 40
0.5973814600491956
 40
0.5973814600491956
 40
0.5973814600491956
 40
0.5973814600491956
 40
0.7106467842491409
 40
0.7106467842491409
 40
0.7106467842491409
 40
0.7106467842491409
 10
26.57743427364802
 20
13.02634421868982
 30
0.0
 10
26.25113541854072
 20
13.02785338295115
 30
0.0
 10
25.9067377404476
 20
13.02968633039114
 30
0.0
 10
25.54927582106259
 20
13.03173459956754
 30
0.0
  0
SPLINE
  5
11FE1
330
11FC7
100
AcDbEntity
  8
0
100
AcDbSpline
210
0.0
220
0.0
230
1.0
 70
     8
 71
     3
 72
    16
 73
    12
 74
     0
 42
0.000000001
 43
0.0000000001
 40
0.0
 40
0.0
 40
0.0
 40
0.0
 40
0.1112442988757205
 40
0.1112442988757205
 40
0.2224299255224675
 40
0.2224299255224675
 40
0.3336155270284545
 40
0.3336155270284545
 40
0.3908647803534877
 40
0.3908647803534877
 40
0.4129902421055325
 40
0.4129902421055325
 40
0.4129902421055325
 40
0.4129902421055325
 10
23.73248999999997
 20
13.04289999999996
 30
0.0
 10
24.10330012465039
 20
13.04466592266502
 30
0.0
 10
24.47055961111118
 20
13.04641690690356
 30
0.0
 10
25.15641077578625
 20
13.05091862632212
 30
0.0
 10
25.4684676825881
 20
13.05362855744128
 30
0.0
 10
25.99589975393458
 20
13.060891169594
 30
0.0
 10
26.20622993054268
 20
13.06537674500186
 30
0.0
 10
26.42605743653668
 20
13.0740140323387
 30
0.0
 10
26.48292632093394
 20
13.07725060959205
 30
0.0
 10
26.53583805607438
 20
13.08220558009051
 30
0.0
 10
26.54776417742651
 20
13.08363442710851
 30
0.0
 10
26.55685069807885
 20
13.08511249248557
 30
0.0
  0
SPLINE
  5
11FE2
330
11FC7
100
AcDbEntity
  8
0
100
AcDbSpline
210
0.0
220
0.0
230
1.0
 70
     8
 71
     3
 72
     8
 73
     4
 74
     0
 42
0.000000001
 43
0.0000000001
 40
0.0
 40
0.0
 40
0.0
 40
0.0
 40
0.0358810580955392
 40
0.0358810580955392
 40
0.0358810580955392
 40
0.0358810580955392
 10
-26.55685069807891
 20
13.08511249248559
 30
0.0
 10
-26.5716040161305
 20
13.08751235151224
 30
0.0
 10
-26.57818375741604
 20
13.06927711945434
 30
0.0
 10
-26.57751215882158
 20
13.03080127686568
 30
0.0
  0
SPLINE
  5
11FE3
330
11FC7
100
AcDbEntity
  8
0
100
AcDbSpline
210
0.0
220
0.0
230
1.0
 70
     8
 71
     3
 72
    10
 73
     6
 74
     0
 42
0.000000001
 43
0.0000000001
 40
0.1271033214135269
 40
0.1271033214135269
 40
0.1271033214135269
 40
0.1271033214135269
 40
0.1404544927291856
 40
0.1404544927291856
 40
0.1628744344980081
 40
0.1628744344980081
 40
0.1628744344980081
 40
0.1628744344980081
 10
26.57751215884456
 20
13.03080127819056
 30
0.0
 10
26.57776175620756
 20
13.04510069920876
 30
0.0
 10
26.57703061632377
 20
13.05665704423344
 30
0.0
 10
26.57216205282833
 20
13.08005523997741
 30
0.0
 10
26.56606284461184
 20
13.08661099288631
 30
0.0
 10
26.55685069807885
 20
13.08511249248557
 30
0.0
  0
CIRCLE
  5
11FE4
330
11FC7
100
AcDbEntity
  8
0
100
AcDbCircle
 10
-0.0000000000000179
 20
101.5999999999998
 30
0.0
 40
2.349499999999999
  0
CIRCLE
  5
11FE5
330
11FC7
100
AcDbEntity
  8
0
100
AcDbCircle
 10
-0.0000000000000228
 20
123.8249999999998
 30
0.0
 40
2.349499999999999
  0
CIRCLE
  5
11FE6
330
11FC7
100
AcDbEntity
  8
0
100
AcDbCircle
 10
-15.88008000000003
 20
146.0499999999998
 30
0.0
 40
2.349499999999999
  0
CIRCLE
  5
11FE7
330
11FC7
100
AcDbEntity
  8
0
100
AcDbCircle
 10
7.932419999999973
 20
146.0499999999998
 30
0.0
 40
2.349499999999999
  0
CIRCLE
  5
11FE8
330
11FC7
100
AcDbEntity
  8
0
100
AcDbCircle
 10
15.87499999999996
 20
168.2749999999998
 30
0.0
 40
2.349499999999999
  0
CIRCLE
  5
11FE9
330
11FC7
100
AcDbEntity
  8
0
100
AcDbCircle
 10
-7.937500000000036
 20
168.2749999999998
 30
0.0
 40
2.349499999999999
  0
CIRCLE
  5
11FEA
330
11FC7
100
AcDbEntity
  8
0
100
AcDbCircle
 10
-22.22500000000005
 20
190.4999999999998
 30
0.0
 40
2.349499999999999
  0
CIRCLE
  5
11FEB
330
11FC7
100
AcDbEntity
  8
0
100
AcDbCircle
 10
1.58749999999995
 20
190.4999999999998
 30
0.0
 40
2.349499999999999
  0
CIRCLE
  5
11FEC
330
11FC7
100
AcDbEntity
  8
0
100
AcDbCircle
 10
15.87499999999995
 20
212.7249999999998
 30
0.0
 40
2.349499999999999
  0
CIRCLE
  5
11FED
330
11FC7
100
AcDbEntity
  8
0
100
AcDbCircle
 10
-7.937500000000055
 20
212.7249999999998
 30
0.0
 40
2.349499999999999
  0
CIRCLE
  5
11FEE
330
11FC7
100
AcDbEntity
  8
0
100
AcDbCircle
 10
7.950199999999933
 20
234.9499999999998
 30
0.0
 40
2.349499999999999
  0
CIRCLE
  5
11FEF
330
11FC7
100
AcDbEntity
  8
0
100
AcDbCircle
 10
-15.87500000000006
 20
234.9499999999998
 30
0.0
 40
2.349499999999999
  0
CIRCLE
  5
11FF0
330
11FC7
100
AcDbEntity
  8
0
100
AcDbCircle
 10
15.90039999999993
 20
257.1749999999998
 30
0.0
 40
2.349499999999999
  0
CIRCLE
  5
11FF1
330
11FC7
100
AcDbEntity
  8
0
100
AcDbCircle
 10
-7.924800000000073
 20
257.1749999999998
 30
0.0
 40
2.349499999999999
  0
CIRCLE
  5
11FF2
330
11FC7
100
AcDbEntity
  8
0
100
AcDbCircle
 10
7.950199999999913
 20
279.3999999999999
 30
0.0
 40
2.349499999999999
  0
CIRCLE
  5
11FF3
330
11FC7
100
AcDbEntity
  8
0
100
AcDbCircle
 10
-22.22500000000008
 20
279.3999999999999
 30
0.0
 40
2.349499999999999
  0
CIRCLE
  5
11FF4
330
11FC7
100
AcDbEntity
  8
0
100
AcDbCircle
 10
22.25039999999991
 20
301.6249999999999
 30
0.0
 40
2.349499999999999
  0
CIRCLE
  5
11FF5
330
11FC7
100
AcDbEntity
  8
0
100
AcDbCircle
 10
-7.924800000000091
 20
301.6249999999999
 30
0.0
 40
2.349499999999999
  0
CIRCLE
  5
11FF6
330
11FC7
100
AcDbEntity
  8
0
100
AcDbCircle
 10
11.12519999999989
 20
323.8499999999998
 30
0.0
 40
2.349499999999999
  0
CIRCLE
  5
11FF7
330
11FC7
100
AcDbEntity
  8
0
100
AcDbCircle
 10
-19.0500000000001
 20
323.8499999999998
 30
0.0
 40
2.349499999999999
  0
CIRCLE
  5
11FF8
330
11FC7
100
AcDbEntity
  8
0
100
AcDbCircle
 10
19.06269999999989
 20
346.5245799999998
 30
0.0
 40
2.349499999999999
  0
CIRCLE
  5
11FF9
330
11FC7
100
AcDbEntity
  8
0
100
AcDbCircle
 10
-11.1125000000001
 20
346.5245799999998
 30
0.0
 40
2.349499999999999
  0
CIRCLE
  5
11FFA
330
11FC7
100
AcDbEntity
  8
0
100
AcDbCircle
 10
7.945119999999873
 20
368.2999999999998
 30
0.0
 40
2.349499999999999
  0
CIRCLE
  5
11FFB
330
11FC7
100
AcDbEntity
  8
0
100
AcDbCircle
 10
-22.23008000000012
 20
368.2999999999998
 30
0.0
 40
2.349499999999999
  0
CIRCLE
  5
11FFC
330
11FC7
100
AcDbEntity
  8
0
100
AcDbCircle
 10
22.23769999999987
 20
390.5249999999998
 30
0.0
 40
2.349499999999999
  0
CIRCLE
  5
11FFD
330
11FC7
100
AcDbEntity
  8
0
100
AcDbCircle
 10
-7.937500000000126
 20
390.5249999999998
 30
0.0
 40
2.349499999999999
  0
LINE
  5
11FFE
330
11FC7
100
AcDbEntity
  8
0
100
AcDbLine
 10
19.84374999999986
 20
403.2249999999999
 30
0.0
 11
31.74999999999986
 21
391.31875
 31
0.0
  0
LINE
  5
11FFF
330
11FC7
100
AcDbEntity
  8
0
100
AcDbLine
 10
-31.75000000000013
 20
391.31875
 30
0.0
 11
-19.84375000000013
 21
403.2249999999999
 31
0.0
  0
LINE
  5
12000
330
11FC7
100
AcDbEntity
  8
0
100
AcDbLine
 10
31.74999999999991
 20
167.081730576072
 30
0.0
 11
31.74999999999986
 21
391.31875
 31
0.0
  0
LINE
  5
12001
330
11FC7
100
AcDbEntity
  8
0
100
AcDbLine
 10
19.84374999999986
 20
403.2249999999999
 30
0.0
 11
-19.84375000000014
 21
403.2249999999999
 31
0.0
  0
LINE
  5
12002
330
11FC7
100
AcDbEntity
  8
0
100
AcDbLine
 10
-31.75000000000013
 20
391.31875
 30
0.0
 11
-31.75000000000004
 21
167.081730576072
 31
0.0
  0
ELLIPSE
  5
12003
330
11FC7
100
AcDbEntity
  8
0
100
AcDbEllipse
 10
26.26979316565084
 20
158.4049010057468
 30
0.0
 11
0.1881416884284092
 21
7.937868084793196
 31
0.0
210
0.0
220
0.0
230
1.0
 40
0.3582353278142765
 41
4.729817496795293
 42
4.738756112573816
  0
LINE
  5
12004
330
11FC7
100
AcDbEntity
  8
0
100
AcDbLine
 10
31.77948455041033
 20
165.898819578533
 30
0.0
 11
31.96273670744739
 21
158.5468
 31
0.0
  0
SPLINE
  5
12005
330
11FC7
100
AcDbEntity
  8
0
100
AcDbSpline
210
0.0
220
0.0
230
1.0
 70
     8
 71
     3
 72
    16
 73
    12
 74
     0
 42
0.000000001
 43
0.0000000001
 40
-0.6535552918003738
 40
-0.6535552918003738
 40
-0.6535552918003738
 40
-0.6535552918003738
 40
-0.5440372284880662
 40
-0.5440372284880662
 40
-0.4153261261667753
 40
-0.4153261261667753
 40
-0.2323475610793966
 40
-0.2323475610793966
 40
-0.1902941471998348
 40
-0.1902941471998348
 40
-0.1778435367624424
 40
-0.1778435367624424
 40
-0.1778435367624424
 40
-0.1778435367624424
 10
29.11738969994597
 20
158.5468
 30
0.0
 10
29.13566944675972
 20
159.3950974279865
 30
0.0
 10
29.26349223035661
 20
160.2330504723836
 30
0.0
 10
29.77170091016212
 20
162.0194053754657
 30
0.0
 10
30.15270617775926
 20
162.8220474838702
 30
0.0
 10
31.00289940683976
 20
164.3654650793056
 30
0.0
 10
31.48523848934435
 20
165.0160849230872
 30
0.0
 10
31.73023767223327
 20
165.6040701143036
 30
0.0
 10
31.7634610361157
 20
165.7103049174977
 30
0.0
 10
31.77857421867511
 20
165.8394601108381
 30
0.0
 10
31.78022306640145
 20
165.8691905465285
 30
0.0
 10
31.77948455041033
 20
165.898819578533
 30
0.0
  0
LINE
  5
12006
330
11FC7
100
AcDbEntity
  8
0
100
AcDbLine
 10
31.96273670744739
 20
158.5468
 30
0.0
 11
29.11719191926754
 21
158.5289573072446
 31
0.0
  0
LINE
  5
12007
330
11FC7
100
AcDbEntity
  8
0
100
AcDbLine
 10
31.77948455041033
 20
165.8988195785331
 30
0.0
 11
31.7499999999999
 21
167.0817305760719
 31
0.0
  0
LINE
  5
12008
330
11FC7
100
AcDbEntity
  8
0
100
AcDbLine
 10
-31.96273670744751
 20
158.5468
 30
0.0
 11
-29.1175033646282
 21
158.5468
 31
0.0
  0
ELLIPSE
  5
12009
330
11FC7
100
AcDbEntity
  8
0
100
AcDbEllipse
 10
-26.26979316565095
 20
158.4049010057467
 30
0.0
 11
-0.1881416884284416
 21
7.937868084793265
 31
0.0
210
0.0
220
0.0
230
1.0
 40
0.3582353278142736
 41
1.544429194605754
 42
1.553367810384284
  0
SPLINE
  5
1200A
330
11FC7
100
AcDbEntity
  8
0
100
AcDbSpline
210
0.0
220
0.0
230
1.0
 70
     8
 71
     3
 72
    16
 73
    12
 74
     0
 42
0.000000001
 43
0.0000000001
 40
-1.16233960369339
 40
-1.16233960369339
 40
-1.16233960369339
 40
-1.16233960369339
 40
-1.147834256298444
 40
-1.147834256298444
 40
-1.036972199348643
 40
-1.036972199348643
 40
-0.645255720822963
 40
-0.645255720822963
 40
-0.2954461127886836
 40
-0.2954461127886836
 40
0.0
 40
0.0
 40
0.0
 40
0.0
 10
-31.77948455041048
 20
165.8988195785331
 30
0.0
 10
-31.77980233775019
 20
165.8860700492447
 30
0.0
 10
-31.77967857467587
 20
165.8732782375128
 30
0.0
 10
-31.77515371688906
 20
165.7625351481611
 30
0.0
 10
-31.74748433013298
 20
165.6549969808327
 30
0.0
 10
-31.54217478147737
 20
165.125793158664
 30
0.0
 10
-31.15503911134929
 20
164.5807107662529
 30
0.0
 10
-30.33917014601564
 20
163.1903358882095
 30
0.0
 10
-29.89076265761827
 20
162.3362922827086
 30
0.0
 10
-29.2879733074404
 20
160.3869002155634
 30
0.0
 10
-29.13736326506716
 20
159.473701455068
 30
0.0
 10
-29.11738969994607
 20
158.5468
 30
0.0
  0
LINE
  5
1200B
330
11FC7
100
AcDbEntity
  8
0
100
AcDbLine
 10
-31.96273670744751
 20
158.5468
 30
0.0
 11
-31.77948455041048
 21
165.8988195785331
 31
0.0
  0
LINE
  5
1200C
330
11FC7
100
AcDbEntity
  8
0
100
AcDbLine
 10
-31.74999999999997
 20
167.0817305760745
 30
0.0
 11
-31.77948455041048
 21
165.8988195785331
 31
0.0
  0
LINE
  5
1200D
330
11FC7
100
AcDbEntity
  8
0
100
AcDbLine
 10
26.54879698504358
 20
11.38571007291274
 30
0.0
 11
29.11719191926754
 21
158.5289573072446
 31
0.0
  0
LINE
  5
1200E
330
11FC7
100
AcDbEntity
  8
0
100
AcDbLine
 10
26.54879698504358
 20
11.38571007291274
 30
0.0
 11
29.39316370822448
 21
11.33606146707995
 31
0.0
  0
LINE
  5
1200F
330
11FC7
100
AcDbEntity
  8
0
100
AcDbLine
 10
31.96273670744739
 20
158.5468
 30
0.0
 11
29.39316370822448
 21
11.33606146707995
 31
0.0
  0
LINE
  5
12010
330
11FC7
100
AcDbEntity
  8
0
100
AcDbLine
 10
-24.52623999999986
 20
11.69923999999998
 30
0.0
 11
24.52623999999977
 21
11.69923999999998
 31
0.0
  0
LINE
  5
12011
330
11FC7
100
AcDbEntity
  8
0
100
AcDbLine
 10
24.52623999999979
 20
0.0
 30
0.0
 11
-24.52623999999986
 21
0.0
 31
0.0
  0
ARC
  5
12012
330
11FC7
100
AcDbEntity
  8
0
100
AcDbCircle
 10
23.70443026186269
 20
11.43535867874553
 30
0.0
 40
5.689599999999992
100
AcDbArc
 50
278.3048920155258
 51
359.0000000000001
  0
ARC
  5
12013
330
11FC7
100
AcDbEntity
  8
0
100
AcDbCircle
 10
23.70443026186267
 20
11.43535867874555
 30
0.0
 40
2.844800000000005
100
AcDbArc
 50
286.7909974808783
 51
358.9999999999998
  0
ENDBLK
  5
11FC9
330
11FC7
100
AcDbEntity
  8
0
100
AcDbBlockEnd
  0
BLOCK
  5
12015
330
12014
100
AcDbEntity
  8
0
100
AcDbBlockBegin
  2
HTT5-Left
 70
     0
 10
0.0
 20
0.0
 30
0.0
  3
HTT5-Left
  1

  0
LINE
  5
12017
330
12014
100
AcDbEntity
  8
0
100
AcDbLine
 10
57.53560269887845
 20
8.590558678745505
 30
0.0
 11
57.53560269887845
 21
8.481234572181453
 31
0.0
  0
LINE
  5
12018
330
12014
100
AcDbEntity
  8
0
100
AcDbLine
 10
57.49783242221411
 20
8.590558678745505
 30
0.0
 11
57.53560269887845
 21
8.590558678745505
 31
0.0
  0
SPLINE
  5
12019
330
12014
100
AcDbEntity
  8
0
100
AcDbSpline
210
0.0
220
0.0
230
1.0
 70
     8
 71
     3
 72
    16
 73
    12
 74
     0
 42
0.000000001
 43
0.0000000001
 40
0.0
 40
0.0
 40
0.0
 40
0.0
 40
0.0428423897049165
 40
0.0428423897049165
 40
0.0831477185008952
 40
0.0831477185008952
 40
0.1225143143206055
 40
0.1225143143206055
 40
0.1430971646855523
 40
0.1430971646855523
 40
0.1636604262608854
 40
0.1636604262608854
 40
0.1636604262608854
 40
0.1636604262608854
 10
0.2978345365279251
 20
13.03173459956754
 30
0.0
 10
0.2522383981468748
 20
13.03251005144147
 30
0.0
 10
0.2125129171903121
 20
13.00630914724772
 30
0.0
 10
0.1489811800852868
 20
12.90209386130135
 30
0.0
 10
0.1250491106562286
 20
12.82844560814371
 30
0.0
 10
0.0891328072841517
 20
12.64294003872548
 30
0.0
 10
0.0772007093007285
 20
12.53415778027671
 30
0.0
 10
0.0653828189133293
 20
12.35107396897403
 30
0.0
 10
0.0625095453375778
 20
12.28561168107523
 30
0.0
 10
0.0588185402238423
 20
12.15156680143062
 30
0.0
 10
0.0580069107039053
 20
12.0833381367912
 30
0.0
 10
0.0581789521197984
 20
12.0149359567811
 30
0.0
  0
SPLINE
  5
1201A
330
12014
100
AcDbEntity
  8
0
100
AcDbSpline
210
0.0
220
0.0
230
1.0
 70
     8
 71
     3
 72
    16
 73
    12
 74
     0
 42
0.000000001
 43
0.0000000001
 40
-0.1969447702819867
 40
-0.1969447702819867
 40
-0.1969447702819867
 40
-0.1969447702819867
 40
-0.1738095768900161
 40
-0.1738095768900161
 40
-0.145790935774852
 40
-0.145790935774852
 40
-0.1012418803306714
 40
-0.1012418803306714
 40
-0.0538491035524422
 40
-0.0538491035524422
 40
-0.0314866973300297
 40
-0.0314866973300297
 40
-0.0314866973300297
 40
-0.0314866973300297
 10
2.938958711969368
 20
12.03203857988899
 30
0.0
 10
2.940199086728499
 20
12.09885900096466
 30
0.0
 10
2.943017922029725
 20
12.16547548675334
 30
0.0
 10
2.953325539544335
 20
12.31003542342826
 30
0.0
 10
2.961623993870365
 20
12.38679349140668
 30
0.0
 10
2.992049945702762
 20
12.57503182029937
 30
0.0
 10
3.019005570494555
 20
12.67751174205003
 30
0.0
 10
3.099182070701766
 20
12.85439623288162
 30
0.0
 10
3.152419927241616
 20
12.92290084855818
 30
0.0
 10
3.250372525452816
 20
12.993126911434
 30
0.0
 10
3.28497716540646
 20
13.01120102376458
 30
0.0
 10
3.32302321287484
 20
13.02477102191222
 30
0.0
  0
LINE
  5
1201B
330
12014
100
AcDbEntity
  8
0
100
AcDbLine
 10
0.0555891558296239
 20
13.03789389248392
 30
0.0
 11
0.0
 21
6.959599999999994
 31
0.0
  0
LINE
  5
1201C
330
12014
100
AcDbEntity
  8
0
100
AcDbLine
 10
2.938958687450903
 20
12.0320385789199
 30
0.0
 11
2.844799999999996
 21
6.959599999999994
 31
0.0
  0
LINE
  5
1201D
330
12014
100
AcDbEntity
  8
0
100
AcDbLine
 10
0.0
 20
13.0429
 30
0.0
 11
0.0
 21
6.959599999999994
 31
0.0
  0
ELLIPSE
  5
1201E
330
12014
100
AcDbEntity
  8
0
100
AcDbEllipse
 10
5.689599999999995
 20
58.51680704441303
 30
0.0
 11
-0.000000000000002
 21
-326.006618081351
 31
0.0
210
0.0
220
0.0
230
1.0
 40
0.0174524064372835
 41
4.852348506047265
 42
4.8555180493667
  0
ARC
  5
1201F
330
12014
100
AcDbEntity
  8
0
100
AcDbCircle
 10
6.959599999999995
 20
6.959599999999992
 30
0.0
 40
6.959599999999998
100
AcDbArc
 50
180.0
 51
269.9999999999998
  0
LINE
  5
12020
330
12014
100
AcDbEntity
  8
0
100
AcDbLine
 10
57.53560269887831
 20
0.0
 30
0.0
 11
6.959599999999976
 21
0.0
 31
0.0
  0
ARC
  5
12021
330
12014
100
AcDbEntity
  8
0
100
AcDbCircle
 10
57.53560269887831
 20
5.849619999999973
 30
0.0
 40
5.849620000000008
100
AcDbArc
 50
269.9999999999998
 51
89.99999999999984
  0
LINE
  5
12022
330
12014
100
AcDbEntity
  8
0
100
AcDbLine
 10
56.4238172095154
 20
11.69923999999998
 30
0.0
 11
57.53560269887832
 21
11.69923999999998
 31
0.0
  0
LINE
  5
12023
330
12014
100
AcDbEntity
  8
0
100
AcDbLine
 10
57.53560269887831
 20
8.854439999999978
 30
0.0
 11
57.40666432742209
 21
8.854439999999978
 31
0.0
  0
ARC
  5
12024
330
12014
100
AcDbEntity
  8
0
100
AcDbCircle
 10
57.53560269887831
 20
5.849619999999973
 30
0.0
 40
3.004820000000005
100
AcDbArc
 50
270.0
 51
90.0
  0
LINE
  5
12025
330
12014
100
AcDbEntity
  8
0
100
AcDbLine
 10
6.959599999999973
 20
2.844799999999985
 30
0.0
 11
57.53560269887831
 21
2.844799999999967
 31
0.0
  0
ARC
  5
12026
330
12014
100
AcDbEntity
  8
0
100
AcDbCircle
 10
6.959599999999998
 20
6.959599999999996
 30
0.0
 40
4.114800000000001
100
AcDbArc
 50
180.0
 51
269.9999999999997
  0
SPLINE
  5
12027
330
12014
100
AcDbEntity
  8
0
100
AcDbSpline
210
0.0
220
0.0
230
1.0
 70
     8
 71
     3
 72
    14
 73
    10
 74
     0
 42
0.000000001
 43
0.0000000001
 40
0.1851893584318067
 40
0.1851893584318067
 40
0.1851893584318067
 40
0.1851893584318067
 40
0.3332420225619814
 40
0.3332420225619814
 40
0.5555305837976268
 40
0.5555305837976268
 40
0.7257097298732785
 40
0.7257097298732785
 40
0.8619517512949538
 40
0.8619517512949538
 40
0.8619517512949538
 40
0.8619517512949538
 10
0.2978345365279262
 20
13.03173459956754
 30
0.0
 10
0.4547443380820801
 20
13.02906604025585
 30
0.0
 10
0.6716681827942561
 20
13.02675753426324
 30
0.0
 10
1.352566321631433
 20
13.02250048995834
 30
0.0
 10
1.878068565907687
 20
13.02136417601792
 30
0.0
 10
2.959889058538933
 20
13.02306002113448
 30
0.0
 10
3.474044821638373
 20
13.02501584935884
 30
0.0
 10
4.450210778646574
 20
13.0311187422321
 30
0.0
 10
4.898281941185426
 20
13.03472714654324
 30
0.0
 10
5.350783467538057
 20
13.03929161341813
 30
0.0
  0
LINE
  5
12028
330
12014
100
AcDbEntity
  8
0
100
AcDbLine
 10
0.0
 20
13.0429
 30
0.0
 11
0.0
 21
158.5468
 31
0.0
  0
SPLINE
  5
12029
330
12014
100
AcDbEntity
  8
0
100
AcDbSpline
210
0.0
220
0.0
230
1.0
 70
     8
 71
     3
 72
    10
 73
     6
 74
     0
 42
0.000000001
 43
0.0000000001
 40
0.1267392499567436
 40
0.1267392499567436
 40
0.1267392499567436
 40
0.1267392499567436
 40
0.1400487004133504
 40
0.1400487004133504
 40
0.1612817381924433
 40
0.1612817381924433
 40
0.1612817381924433
 40
0.1612817381924433
 10
5.689599993099814
 20
12.98494509041573
 30
0.0
 10
5.647674876830837
 20
12.99922158386499
 30
0.0
 10
5.604837006595361
 20
13.0107580095189
 30
0.0
 10
5.491980487430808
 20
13.03337424935252
 30
0.0
 10
5.421418943880761
 20
13.04000412657705
 30
0.0
 10
5.350783467538059
 20
13.03929161341813
 30
0.0
  0
SPLINE
  5
1202A
330
12014
100
AcDbEntity
  8
0
100
AcDbSpline
210
0.0
220
0.0
230
1.0
 70
     8
 71
     3
 72
    14
 73
    10
 74
     0
 42
0.000000001
 43
0.0000000001
 40
0.0
 40
0.0
 40
0.0
 40
0.0
 40
0.0396894828435813
 40
0.0396894828435813
 40
0.0793789643165008
 40
0.0793789643165008
 40
0.1190684429426447
 40
0.1190684429426447
 40
0.1266215275340054
 40
0.1266215275340054
 40
0.1266215275340054
 40
0.1266215275340054
 10
6.378050773338116
 20
12.02333904946361
 30
0.0
 10
6.378050773338116
 20
12.15561717594061
 30
0.0
 10
6.352209986535969
 20
12.28663065369963
 30
0.0
 10
6.251755836829079
 20
12.53137959808233
 30
0.0
 10
6.178102870759647
 20
12.64277513497996
 30
0.0
 10
5.9922365594994
 20
12.83106809067725
 30
0.0
 10
5.881800200087349
 20
12.90616532874724
 30
0.0
 10
5.736912247948803
 20
12.96784809541329
 30
0.0
 10
5.713403405296954
 20
12.97683946570853
 30
0.0
 10
5.689599993099827
 20
12.98494509041573
 30
0.0
  0
LINE
  5
1202B
330
12014
100
AcDbEntity
  8
0
100
AcDbLine
 10
6.378050773338117
 20
8.481234572181595
 30
0.0
 11
6.378050773338117
 21
12.02333904946361
 31
0.0
  0
LINE
  5
1202C
330
12014
100
AcDbEntity
  8
0
100
AcDbLine
 10
2.844799999999993
 20
391.31875
 30
0.0
 11
2.844799999999995
 21
403.2249999999999
 31
0.0
  0
LINE
  5
1202D
330
12014
100
AcDbEntity
  8
0
100
AcDbLine
 10
0.0
 20
403.2249999999999
 30
0.0
 11
0.0
 21
391.31875
 31
0.0
  0
LINE
  5
1202E
330
12014
100
AcDbEntity
  8
0
100
AcDbLine
 10
0.0
 20
391.31875
 30
0.0
 11
2.844799999999993
 21
391.31875
 31
0.0
  0
LINE
  5
1202F
330
12014
100
AcDbEntity
  8
0
100
AcDbLine
 10
2.844799999999995
 20
403.2249999999999
 30
0.0
 11
0.0
 21
403.2249999999999
 31
0.0
  0
LINE
  5
12030
330
12014
100
AcDbEntity
  8
0
100
AcDbLine
 10
2.844799999999993
 20
391.31875
 30
0.0
 11
2.844799999999993
 21
167.081730576072
 31
0.0
  0
LINE
  5
12031
330
12014
100
AcDbEntity
  8
0
100
AcDbLine
 10
0.0
 20
391.31875
 30
0.0
 11
0.0
 21
167.081730576072
 31
0.0
  0
LINE
  5
12032
330
12014
100
AcDbEntity
  8
0
100
AcDbLine
 10
0.0
 20
167.081730576072
 30
0.0
 11
2.844799999999993
 21
167.081730576072
 31
0.0
  0
LINE
  5
12033
330
12014
100
AcDbEntity
  8
0
100
AcDbLine
 10
5.713369692915241
 20
158.5289573072446
 30
0.0
 11
5.703433893748455
 21
158.5067585121443
 31
0.0
  0
LINE
  5
12034
330
12014
100
AcDbEntity
  8
0
100
AcDbLine
 10
5.689600000000012
 20
158.5468
 30
0.0
 11
5.713369692915241
 21
158.5289573072446
 31
0.0
  0
LINE
  5
12035
330
12014
100
AcDbEntity
  8
0
100
AcDbLine
 10
5.689600000000007
 20
158.5468
 30
0.0
 11
3.051963557481282
 21
165.8988195785331
 31
0.0
  0
SPLINE
  5
12036
330
12014
100
AcDbEntity
  8
0
100
AcDbSpline
210
0.0
220
0.0
230
1.0
 70
     8
 71
     3
 72
    10
 73
     6
 74
     0
 42
0.000000001
 43
0.0000000001
 40
-0.4780248249070636
 40
-0.4780248249070636
 40
-0.4780248249070636
 40
-0.4780248249070636
 40
-0.3962814415815732
 40
-0.3962814415815732
 40
-0.3577207361501183
 40
-0.3577207361501183
 40
-0.3577207361501183
 40
-0.3577207361501183
 10
2.844799999999993
 20
167.0817305760745
 30
0.0
 10
2.844799999999993
 20
166.8082803242144
 30
0.0
 10
2.877627603625992
 20
166.5353445216067
 30
0.0
 10
2.971475473671527
 20
166.1439760582025
 30
0.0
 10
3.008413809091211
 20
166.0202061874005
 30
0.0
 10
3.051963557481272
 20
165.8988195785331
 30
0.0
  0
SPLINE
  5
12037
330
12014
100
AcDbEntity
  8
0
100
AcDbSpline
210
0.0
220
0.0
230
1.0
 70
     8
 71
     3
 72
    22
 73
    18
 74
     0
 42
0.000000001
 43
0.0000000001
 40
-1.151047167356734
 40
-1.151047167356734
 40
-1.151047167356734
 40
-1.151047167356734
 40
-1.132990630922099
 40
-1.132990630922099
 40
-1.109750141949319
 40
-1.109750141949319
 40
-1.017289431522981
 40
-1.017289431522981
 40
-0.8803209745715301
 40
-0.8803209745715301
 40
-0.8219804066584654
 40
-0.8219804066584654
 40
-0.5620159928507406
 40
-0.5620159928507406
 40
-0.2615037979130161
 40
-0.2615037979130161
 40
0.0
 40
0.0
 40
0.0
 40
0.0
 10
5.689600000000003
 20
158.5468
 30
0.0
 10
5.66964557258476
 20
158.5468
 30
0.0
 10
5.649919712874725
 20
158.5483568494564
 30
0.0
 10
5.604814168026979
 20
158.5552221049096
 30
0.0
 10
5.579959597575853
 20
158.5614042966307
 30
0.0
 10
5.458478936109333
 20
158.6005664788088
 30
0.0
 10
5.33855473414892
 20
158.6681609536253
 30
0.0
 10
4.887016778656706
 20
158.993864866137
 30
0.0
 10
4.502505459089459
 20
159.3122566587348
 30
0.0
 10
4.012353508093646
 20
159.7404769584776
 30
0.0
 10
3.86615939598599
 20
159.8714495094006
 30
0.0
 10
3.084210587795618
 20
160.5915591079776
 30
0.0
 10
2.471869528919822
 20
161.2279426224745
 30
0.0
 10
1.319738790029057
 20
162.7192041345034
 30
0.0
 10
0.8101561828613824
 20
163.5857308050985
 30
0.0
 10
0.1659320256982763
 20
165.3513764102157
 30
0.0
 10
-0.0000000000000065
 20
166.2103219005048
 30
0.0
 10
-0.000000000000007
 20
167.0817305760747
 30
0.0
  0
LINE
  5
12038
330
12014
100
AcDbEntity
  8
0
100
AcDbLine
 10
0.0
 20
158.5468
 30
0.0
 11
0.0
 21
167.081730576072
 31
0.0
  0
LINE
  5
12039
330
12014
100
AcDbEntity
  8
0
100
AcDbLine
 10
57.42518090758827
 20
11.69923999999998
 30
0.0
 11
5.713369692915239
 21
158.5289573072446
 31
0.0
  0
LINE
  5
1203A
330
12014
100
AcDbEntity
  8
0
100
AcDbLine
 10
57.53560269887827
 20
8.481234572181453
 30
0.0
 11
5.689600000000005
 21
158.5468
 31
0.0
  0
LINE
  5
1203B
330
12014
100
AcDbEntity
  8
0
100
AcDbLine
 10
57.53560269887842
 20
8.590558678745544
 30
0.0
 11
57.53560269887842
 21
8.854439999999977
 31
0.0
  0
LINE
  5
1203C
330
12014
100
AcDbEntity
  8
0
100
AcDbLine
 10
57.53560269887827
 20
8.481234572181541
 30
0.0
 11
57.53560269887827
 21
2.890931783847028
 31
0.0
  0
LINE
  5
1203D
330
12014
100
AcDbEntity
  8
0
100
AcDbLine
 10
6.378050773338109
 20
2.890931783847171
 30
0.0
 11
6.378050773338117
 21
8.481234572181611
 31
0.0
  0
LINE
  5
1203E
330
12014
100
AcDbEntity
  8
0
100
AcDbLine
 10
57.53560269887827
 20
2.890931783847019
 30
0.0
 11
6.378050773338115
 21
2.890931783847161
 31
0.0
  0
ENDBLK
  5
12016
330
12014
100
AcDbEntity
  8
0
100
AcDbBlockEnd
  0
BLOCK
  5
12040
330
1203F
100
AcDbEntity
  8
0
100
AcDbBlockBegin
  2
HTT5-Right
 70
     0
 10
0.0
 20
0.0
 30
0.0
  3
HTT5-Right
  1

  0
LINE
  5
12042
330
1203F
100
AcDbEntity
  8
0
100
AcDbLine
 10
-57.53560269887828
 20
5.745758678745502
 30
0.0
 11
-57.53560269887828
 21
5.735731783847026
 31
0.0
  0
LINE
  5
12043
330
1203F
100
AcDbEntity
  8
0
100
AcDbLine
 10
-6.378050773338114
 20
5.735731783847168
 30
0.0
 11
-6.378050773338114
 21
5.745758678745592
 31
0.0
  0
LINE
  5
12044
330
1203F
100
AcDbEntity
  8
0
100
AcDbLine
 10
-6.378050773338244
 20
5.735731783847128
 30
0.0
 11
-6.378050773338235
 21
2.890931783847126
 31
0.0
  0
LINE
  5
12045
330
1203F
100
AcDbEntity
  8
0
100
AcDbLine
 10
-57.53560269887843
 20
5.735731783846986
 30
0.0
 11
-6.378050773338248
 21
5.735731783847128
 31
0.0
  0
LINE
  5
12046
330
1203F
100
AcDbEntity
  8
0
100
AcDbLine
 10
-57.53560269887842
 20
2.890931783846983
 30
0.0
 11
-57.53560269887843
 21
5.735731783846986
 31
0.0
  0
LINE
  5
12047
330
1203F
100
AcDbEntity
  8
0
100
AcDbLine
 10
-6.378050773338235
 20
2.890931783847126
 30
0.0
 11
-57.53560269887842
 21
2.890931783846983
 31
0.0
  0
SPLINE
  5
12048
330
1203F
100
AcDbEntity
  8
0
100
AcDbSpline
210
0.0
220
0.0
230
1.0
 70
     8
 71
     3
 72
    16
 73
    12
 74
     0
 42
0.000000001
 43
0.0000000001
 40
0.0
 40
0.0
 40
0.0
 40
0.0
 40
0.0393055842811337
 40
0.0393055842811337
 40
0.0787112030855569
 40
0.0787112030855569
 40
0.1184454968051015
 40
0.1184454968051015
 40
0.1407236048269712
 40
0.1407236048269712
 40
0.1633022578478116
 40
0.1633022578478116
 40
0.1633022578478116
 40
0.1633022578478116
 10
-0.0581789521198074
 20
12.0149359567811
 30
0.0
 10
-0.0578494223210712
 20
12.14595415664455
 30
0.0
 10
-0.0610159677804149
 20
12.27572691924253
 30
0.0
 10
-0.0757556043038083
 20
12.51846952933402
 30
0.0
 10
-0.0872733539391896
 20
12.6289121695736
 30
0.0
 10
-0.1220239997499562
 20
12.81673389950281
 30
0.0
 10
-0.1450446200901986
 20
12.89161745937569
 30
0.0
 10
-0.1914364833705373
 20
12.9735071657114
 30
0.0
 10
-0.2100263685961944
 20
12.9955671368438
 30
0.0
 10
-0.2512357077683178
 20
13.02503405949176
 30
0.0
 10
-0.2737723042433875
 20
13.03214382508047
 30
0.0
 10
-0.2978345365279366
 20
13.03173459956754
 30
0.0
  0
SPLINE
  5
12049
330
1203F
100
AcDbEntity
  8
0
100
AcDbSpline
210
0.0
220
0.0
230
1.0
 70
     8
 71
     3
 72
    16
 73
    12
 74
     0
 42
0.000000001
 43
0.0000000001
 40
-0.143863899692827
 40
-0.143863899692827
 40
-0.143863899692827
 40
-0.143863899692827
 40
-0.126487070258704
 40
-0.126487070258704
 40
-0.0895242243709724
 40
-0.0895242243709724
 40
-0.0501065644588061
 40
-0.0501065644588061
 40
-0.0221900570286077
 40
-0.0221900570286077
 40
0.0
 40
0.0
 40
0.0
 40
0.0
 10
-3.32302738571787
 20
13.02477363481022
 30
0.0
 10
-3.290628081469739
 20
13.01321799699931
 30
0.0
 10
-3.259968791792682
 20
12.99812467742907
 30
0.0
 10
-3.17009994558656
 20
12.93853475254524
 30
0.0
 10
-3.119409442554654
 20
12.88116416120285
 30
0.0
 10
-3.034935601968253
 20
12.72399742231909
 30
0.0
 10
-3.004079181005804
 20
12.62470570080891
 30
0.0
 10
-2.966876182254953
 20
12.42929399761721
 30
0.0
 10
-2.95627645149234
 20
12.34227467450973
 30
0.0
 10
-2.943631836754952
 20
12.17967255577665
 30
0.0
 10
-2.940331508156798
 20
12.10599269627122
 30
0.0
 10
-2.938958711969379
 20
12.03203857988896
 30
0.0
  0
LINE
  5
1204A
330
1203F
100
AcDbEntity
  8
0
100
AcDbLine
 10
-2.938958687450936
 20
12.03203857891987
 30
0.0
 11
-2.844800000000007
 21
6.959599999999994
 31
0.0
  0
LINE
  5
1204B
330
1203F
100
AcDbEntity
  8
0
100
AcDbLine
 10
-0.055589155829635
 20
13.03789389248393
 30
0.0
 11
0.0
 21
6.959599999999994
 31
0.0
  0
LINE
  5
1204C
330
1203F
100
AcDbEntity
  8
0
100
AcDbLine
 10
0.0
 20
6.959599999999994
 30
0.0
 11
0.0
 21
13.0429
 31
0.0
  0
ELLIPSE
  5
1204D
330
1203F
100
AcDbEntity
  8
0
100
AcDbEllipse
 10
-5.689600000000005
 20
58.51680704441264
 30
0.0
 11
0.0000000000000025
 21
-326.0066180813494
 31
0.0
210
0.0
220
0.0
230
1.0
 40
0.0174524064372836
 41
1.427667257812886
 42
1.43083680113232
  0
ARC
  5
1204E
330
1203F
100
AcDbEntity
  8
0
100
AcDbCircle
 10
-6.959600000000008
 20
6.959599999999996
 30
0.0
 40
4.114800000000001
100
AcDbArc
 50
270.0000000000003
 51
0.0
  0
LINE
  5
1204F
330
1203F
100
AcDbEntity
  8
0
100
AcDbLine
 10
-6.959599999999984
 20
2.844799999999985
 30
0.0
 11
-57.53560269887832
 21
2.844799999999967
 31
0.0
  0
ARC
  5
12050
330
1203F
100
AcDbEntity
  8
0
100
AcDbCircle
 10
-57.53560269887832
 20
5.849619999999973
 30
0.0
 40
3.004820000000005
100
AcDbArc
 50
90.0
 51
270.0
  0
LINE
  5
12051
330
1203F
100
AcDbEntity
  8
0
100
AcDbLine
 10
-57.42518090758827
 20
11.69923999999998
 30
0.0
 11
-57.53560269887834
 21
11.69923999999998
 31
0.0
  0
ARC
  5
12052
330
1203F
100
AcDbEntity
  8
0
100
AcDbCircle
 10
-57.53560269887832
 20
5.849619999999973
 30
0.0
 40
5.849620000000008
100
AcDbArc
 50
90.00000000000019
 51
270.0000000000002
  0
LINE
  5
12053
330
1203F
100
AcDbEntity
  8
0
100
AcDbLine
 10
-57.53560269887832
 20
0.0
 30
0.0
 11
-6.959599999999985
 21
0.0
 31
0.0
  0
ARC
  5
12054
330
1203F
100
AcDbEntity
  8
0
100
AcDbCircle
 10
-6.959600000000007
 20
6.959599999999992
 30
0.0
 40
6.959599999999998
100
AcDbArc
 50
270.0000000000002
 51
0.0
  0
LINE
  5
12055
330
1203F
100
AcDbEntity
  8
0
100
AcDbLine
 10
0.0
 20
158.5468
 30
0.0
 11
0.0
 21
13.04289999999998
 31
0.0
  0
SPLINE
  5
12056
330
1203F
100
AcDbEntity
  8
0
100
AcDbSpline
210
0.0
220
0.0
230
1.0
 70
     8
 71
     3
 72
    14
 73
    10
 74
     0
 42
0.000000001
 43
0.0000000001
 40
0.0339233798659583
 40
0.0339233798659583
 40
0.0339233798659583
 40
0.0339233798659583
 40
0.1109419577493421
 40
0.1109419577493421
 40
0.3332420225662758
 40
0.3332420225662758
 40
0.5555305838055659
 40
0.5555305838055659
 40
0.7106467842491409
 40
0.7106467842491409
 40
0.7106467842491409
 40
0.7106467842491409
 10
-5.350783467537932
 20
13.03929161341811
 30
0.0
 10
-5.094783917181747
 20
13.03670929844335
 30
0.0
 10
-4.839979900207869
 20
13.03443074499302
 30
0.0
 10
-3.861186932425168
 20
13.02671901105491
 30
0.0
 10
-3.169222768154008
 20
13.0235234833472
 30
0.0
 10
-1.933186315881029
 20
13.02132790727997
 30
0.0
 10
-1.400925027409625
 20
13.02234625963404
 30
0.0
 10
-0.6936879671956638
 20
13.02652825319002
 30
0.0
 10
-0.4627724242757371
 20
13.02892950688473
 30
0.0
 10
-0.2978345365279388
 20
13.03173459956754
 30
0.0
  0
SPLINE
  5
12057
330
1203F
100
AcDbEntity
  8
0
100
AcDbSpline
210
0.0
220
0.0
230
1.0
 70
     8
 71
     3
 72
     8
 73
     4
 74
     0
 42
0.000000001
 43
0.0000000001
 40
0.0
 40
0.0
 40
0.0
 40
0.0
 40
0.0346379770188381
 40
0.0346379770188381
 40
0.0346379770188381
 40
0.0346379770188381
 10
-5.350783467537933
 20
13.03929161341809
 30
0.0
 10
-5.466031373177315
 20
13.04045414043084
 30
0.0
 10
-5.580570597168322
 20
13.02207217870526
 30
0.0
 10
-5.689599999995547
 20
12.98494508806753
 30
0.0
  0
SPLINE
  5
12058
330
1203F
100
AcDbEntity
  8
0
100
AcDbSpline
210
0.0
220
0.0
230
1.0
 70
     8
 71
     3
 72
    16
 73
    12
 74
     0
 42
0.000000001
 43
0.0000000001
 40
0.0345942891639972
 40
0.0345942891639972
 40
0.0345942891639972
 40
0.0345942891639972
 40
0.0396894627316788
 40
0.0396894627316788
 40
0.0793789376486438
 40
0.0793789376486438
 40
0.1190684283984565
 40
0.1190684283984565
 40
0.1400986231318568
 40
0.1400986231318568
 40
0.1611288249781504
 40
0.1611288249781504
 40
0.1611288249781504
 40
0.1611288249781504
 10
-5.689599999997798
 20
12.98494508806676
 30
0.0
 10
-5.705642973593445
 20
12.97948207607785
 30
0.0
 10
-5.721563655443393
 20
12.97361280052865
 30
0.0
 10
-5.86028802146858
 20
12.91847852858938
 30
0.0
 10
-5.972509037565564
 20
12.84607448074883
 30
0.0
 10
-6.162876740896898
 20
12.66233230470954
 30
0.0
 10
-6.239203394458509
 20
12.55275083751945
 30
0.0
 10
-6.320551439805525
 20
12.36744738404335
 30
0.0
 10
-6.342007461473951
 20
12.30052420929169
 30
0.0
 10
-6.370795701085732
 20
12.16333122989372
 30
0.0
 10
-6.378050773338132
 20
12.0934290461761
 30
0.0
 10
-6.378050773338132
 20
12.02333904946357
 30
0.0
  0
LINE
  5
12059
330
1203F
100
AcDbEntity
  8
0
100
AcDbLine
 10
-6.378050773338132
 20
12.02333904946357
 30
0.0
 11
-6.378050773338132
 21
11.33606146708004
 31
0.0
  0
LINE
  5
1205A
330
1203F
100
AcDbEntity
  8
0
100
AcDbLine
 10
0.0
 20
391.31875
 30
0.0
 11
0.0
 21
403.2249999999999
 31
0.0
  0
LINE
  5
1205B
330
1203F
100
AcDbEntity
  8
0
100
AcDbLine
 10
0.0
 20
403.2249999999999
 30
0.0
 11
-2.844800000000004
 21
403.2249999999999
 31
0.0
  0
LINE
  5
1205C
330
1203F
100
AcDbEntity
  8
0
100
AcDbLine
 10
-2.844800000000004
 20
403.2249999999999
 30
0.0
 11
-2.844800000000007
 21
391.31875
 31
0.0
  0
LINE
  5
1205D
330
1203F
100
AcDbEntity
  8
0
100
AcDbLine
 10
-2.844800000000007
 20
391.31875
 30
0.0
 11
0.0
 21
391.31875
 31
0.0
  0
LINE
  5
1205E
330
1203F
100
AcDbEntity
  8
0
100
AcDbLine
 10
-2.844800000000007
 20
167.081730576072
 30
0.0
 11
-2.844800000000007
 21
391.31875
 31
0.0
  0
LINE
  5
1205F
330
1203F
100
AcDbEntity
  8
0
100
AcDbLine
 10
0.0
 20
167.081730576072
 30
0.0
 11
0.0
 21
391.31875
 31
0.0
  0
LINE
  5
12060
330
1203F
100
AcDbEntity
  8
0
100
AcDbLine
 10
-2.844800000000007
 20
167.081730576072
 30
0.0
 11
0.0
 21
167.081730576072
 31
0.0
  0
LINE
  5
12061
330
1203F
100
AcDbEntity
  8
0
100
AcDbLine
 10
-3.051963557481287
 20
165.898819578533
 30
0.0
 11
-5.689600000000012
 21
158.5468
 31
0.0
  0
LINE
  5
12062
330
1203F
100
AcDbEntity
  8
0
100
AcDbLine
 10
-5.689600000000012
 20
158.5468
 30
0.0
 11
-5.713369692915241
 21
158.5289573072446
 31
0.0
  0
SPLINE
  5
12063
330
1203F
100
AcDbEntity
  8
0
100
AcDbSpline
210
0.0
220
0.0
230
1.0
 70
     8
 71
     3
 72
     8
 73
     4
 74
     0
 42
0.000000001
 43
0.0000000001
 40
-0.1208672268700925
 40
-0.1208672268700925
 40
-0.1208672268700925
 40
-0.1208672268700925
 40
0.0
 40
0.0
 40
0.0
 40
0.0
 10
-3.051963557481298
 20
165.8988195785331
 30
0.0
 10
-2.916050954200973
 20
166.2776557608737
 30
0.0
 10
-2.844800000000006
 20
166.6789649148187
 30
0.0
 10
-2.844800000000007
 20
167.0817305760719
 30
0.0
  0
SPLINE
  5
12064
330
1203F
100
AcDbEntity
  8
0
100
AcDbSpline
210
0.0
220
0.0
230
1.0
 70
     8
 71
     3
 72
    20
 73
    16
 74
     0
 42
0.000000001
 43
0.0000000001
 40
-0.1598489025672319
 40
-0.1598489025672319
 40
-0.1598489025672319
 40
-0.1598489025672319
 40
-0.1367479564213064
 40
-0.1367479564213064
 40
-0.1153474572880917
 40
-0.1153474572880917
 40
-0.0844356954462309
 40
-0.0844356954462309
 40
-0.0498366858531828
 40
-0.0498366858531828
 40
-0.0233359865424743
 40
-0.0233359865424743
 40
-0.0083287469209576
 40
-0.0083287469209576
 40
0.0
 40
0.0
 40
0.0
 40
0.0
 10
-0.000000000000007
 20
167.0817305760719
 30
0.0
 10
-0.0000000000000071
 20
166.3504782718857
 30
0.0
 10
-0.1170646193110103
 20
165.6264213333015
 30
0.0
 10
-0.5320908661836472
 20
164.2771515188742
 30
0.0
 10
-0.8128805521405652
 20
163.6583941367007
 30
0.0
 10
-1.652685070441467
 20
162.2237182651001
 30
0.0
 10
-2.269588512062629
 20
161.4589188723522
 30
0.0
 10
-3.72162851092597
 20
159.9584509048391
 30
0.0
 10
-4.513114053329775
 20
159.29918157358
 30
0.0
 10
-5.183553588471428
 20
158.77043724464
 30
0.0
 10
-5.339815195821687
 20
158.6691324986954
 30
0.0
 10
-5.506130529903613
 20
158.5849536766714
 30
0.0
 10
-5.558546960988111
 20
158.5655914686123
 30
0.0
 10
-5.634640376046205
 20
158.5498163355109
 30
0.0
 10
-5.661837510263486
 20
158.5468
 30
0.0
 10
-5.689600000000012
 20
158.5468
 30
0.0
  0
LINE
  5
12065
330
1203F
100
AcDbEntity
  8
0
100
AcDbLine
 10
0.0
 20
167.081730576072
 30
0.0
 11
0.0
 21
158.5467999999999
 31
0.0
  0
LINE
  5
12066
330
1203F
100
AcDbEntity
  8
0
100
AcDbLine
 10
-57.53560269887838
 20
11.38571007291274
 30
0.0
 11
-5.713369692915239
 21
158.5289573072446
 31
0.0
  0
LINE
  5
12067
330
1203F
100
AcDbEntity
  8
0
100
AcDbLine
 10
-57.53560269887838
 20
11.38571007291274
 30
0.0
 11
-57.53560269887838
 21
11.33606146707995
 31
0.0
  0
LINE
  5
12068
330
1203F
100
AcDbEntity
  8
0
100
AcDbLine
 10
-5.689600000000012
 20
158.5468
 30
0.0
 11
-57.53560269887838
 21
11.33606146707995
 31
0.0
  0
LINE
  5
12069
330
1203F
100
AcDbEntity
  8
0
100
AcDbLine
 10
-6.378050773338131
 20
11.3360614670801
 30
0.0
 11
-6.378050773338118
 21
5.745758678745618
 31
0.0
  0
LINE
  5
1206A
330
1203F
100
AcDbEntity
  8
0
100
AcDbLine
 10
-57.53560269887845
 20
5.745758678745546
 30
0.0
 11
-57.53560269887839
 21
11.33606146707997
 31
0.0
  0
LINE
  5
1206B
330
1203F
100
AcDbEntity
  8
0
100
AcDbLine
 10
-6.378050773338122
 20
5.745758678745627
 30
0.0
 11
-57.53560269887838
 21
5.745758678745538
 31
0.0
  0
ENDBLK
  5
12041
330
1203F
100
AcDbEntity
  8
0
100
AcDbBlockEnd
  0
BLOCK
  5
1206D
330
1206C
100
AcDbEntity
  8
0
100
AcDbBlockBegin
  2
HTT5-Top
 70
     0
 10
0.0
 20
0.0
 30
0.0
  3
HTT5-Top
  1

  0
LINE
  5
1206F
330
1206C
100
AcDbEntity
  8
0
100
AcDbLine
 10
-24.52623999999993
 20
-6.37805077333822
 30
0.0
 11
-24.52623999999993
 21
-14.58761026755064
 31
0.0
  0
LINE
  5
12070
330
1206C
100
AcDbEntity
  8
0
100
AcDbLine
 10
-24.52623999999994
 20
-6.378050773338114
 30
0.0
 11
-26.49896579623437
 21
-6.378050773338118
 31
0.0
  0
LINE
  5
12071
330
1206C
100
AcDbEntity
  8
0
100
AcDbLine
 10
-26.49766556959475
 20
-57.53560269887828
 30
0.0
 11
-24.52623999999985
 21
-57.53560269887828
 31
0.0
  0
ELLIPSE
  5
12072
330
1206C
100
AcDbEntity
  8
0
100
AcDbEllipse
 10
-23.65459907305348
 20
-57.50129660414343
 30
0.0
 11
2.844799999999998
 21
-0.0000000000000007
 31
0.0
210
0.0
220
0.0
230
1.0
 40
0.3454890037635998
 41
3.159045946109729
 42
3.17650455804268
  0
LINE
  5
12073
330
1206C
100
AcDbEntity
  8
0
100
AcDbLine
 10
-29.1175033646282
 20
-5.689600000000007
 30
0.0
 11
-26.49896579623439
 21
-57.51844965151086
 31
0.0
  0
LINE
  5
12074
330
1206C
100
AcDbEntity
  8
0
100
AcDbLine
 10
-29.34333251941529
 20
-57.53560269887827
 30
0.0
 11
-31.96273670744751
 21
-5.689600000000005
 31
0.0
  0
LINE
  5
12075
330
1206C
100
AcDbEntity
  8
0
100
AcDbLine
 10
-26.49766556959475
 20
-57.53560269887827
 30
0.0
 11
-29.34333251941529
 21
-57.53560269887827
 31
0.0
  0
SPLINE
  5
12076
330
1206C
100
AcDbEntity
  8
0
100
AcDbSpline
210
0.0
220
0.0
230
1.0
 70
     8
 71
     3
 72
     8
 73
     4
 74
     0
 42
0.000000001
 43
0.0000000001
 40
0.5796661010826976
 40
0.5796661010826976
 40
0.5796661010826976
 40
0.5796661010826976
 40
0.5803051670562564
 40
0.5803051670562564
 40
0.5803051670562564
 40
0.5803051670562564
 10
-25.39633641432845
 20
-3.388169276867605
 30
0.0
 10
-25.3965197805258
 20
-3.386174937780416
 30
0.0
 10
-25.39670298024948
 20
-3.38418309690011
 30
0.0
 10
-25.39688601423517
 20
-3.382193758197452
 30
0.0
  0
SPLINE
  5
12077
330
1206C
100
AcDbEntity
  8
0
100
AcDbSpline
210
0.0
220
0.0
230
1.0
 70
     8
 71
     3
 72
     8
 73
     4
 74
     0
 42
0.000000001
 43
0.0000000001
 40
0.0383925189919837
 40
0.0383925189919837
 40
0.0383925189919837
 40
0.0383925189919837
 40
0.0385542814108936
 40
0.0385542814108936
 40
0.0385542814108936
 40
0.0385542814108936
 10
25.39688599369505
 20
-3.382193756307636
 30
0.0
 10
25.39670296683148
 20
-3.384183166076442
 30
0.0
 10
25.39651977494357
 20
-3.386174998490588
 30
0.0
 10
25.39633641432794
 20
-3.388169276869402
 30
0.0
  0
SPLINE
  5
12078
330
1206C
100
AcDbEntity
  8
0
100
AcDbSpline
210
0.0
220
0.0
230
1.0
 70
     8
 71
     3
 72
     8
 73
     4
 74
     0
 42
0.000000001
 43
0.0000000001
 40
0.1124934605160943
 40
0.1124934605160943
 40
0.1124934605160943
 40
0.1124934605160943
 40
0.210398386415826
 40
0.210398386415826
 40
0.210398386415826
 40
0.210398386415826
 10
25.39633641432793
 20
-3.388169276869399
 30
0.0
 10
25.13350053403725
 20
-3.195019980947861
 30
0.0
 10
24.83900434332954
 20
-3.049379347591638
 30
0.0
 10
24.52624000000011
 20
-2.957723140123288
 30
0.0
  0
SPLINE
  5
12079
330
1206C
100
AcDbEntity
  8
0
100
AcDbSpline
210
0.0
220
0.0
230
1.0
 70
     8
 71
     3
 72
    10
 73
     6
 74
     0
 42
0.000000001
 43
0.0000000001
 40
0.2555763673393015
 40
0.2555763673393015
 40
0.2555763673393015
 40
0.2555763673393015
 40
0.3279364488154201
 40
0.3279364488154201
 40
0.3534231846692945
 40
0.3534231846692945
 40
0.3534231846692945
 40
0.3534231846692945
 10
-24.52623999999998
 20
-2.957723140123223
 30
0.0
 10
-24.75673175846124
 20
-3.025270719188495
 30
0.0
 10
-24.97806878028244
 20
-3.122358399780951
 30
0.0
 10
-25.25735175621377
 20
-3.290818464404052
 30
0.0
 10
-25.32799788034994
 20
-3.337949601848495
 30
0.0
 10
-25.39633641432826
 20
-3.388169276869593
 30
0.0
  0
LINE
  5
1207A
330
1206C
100
AcDbEntity
  8
0
100
AcDbLine
 10
-24.52623999999984
 20
-63.38522269887832
 30
0.0
 11
-24.52623999999986
 21
-57.53560269887832
 31
0.0
  0
LINE
  5
1207B
330
1206C
100
AcDbEntity
  8
0
100
AcDbLine
 10
-24.52623999999997
 20
-14.58761026755064
 30
0.0
 11
-24.52623999999986
 21
-57.53560269887834
 31
0.0
  0
LINE
  5
1207C
330
1206C
100
AcDbEntity
  8
0
100
AcDbLine
 10
-24.52624
 20
-2.95772314012323
 30
0.0
 11
-24.52623999999999
 21
-6.378050773338118
 31
0.0
  0
SPLINE
  5
1207D
330
1206C
100
AcDbEntity
  8
0
100
AcDbSpline
210
0.0
220
0.0
230
1.0
 70
     8
 71
     3
 72
    16
 73
    12
 74
     0
 42
0.000000001
 43
0.0000000001
 40
0.0351753930425267
 40
0.0351753930425267
 40
0.0351753930425267
 40
0.0351753930425267
 40
0.1112442988749742
 40
0.1112442988749742
 40
0.2224299255202852
 40
0.2224299255202852
 40
0.3336155270249634
 40
0.3336155270249634
 40
0.3908647803495771
 40
0.3908647803495771
 40
0.4481146790159753
 40
0.4481146790159753
 40
0.4481146790159753
 40
0.4481146790159753
 10
-26.55685069807891
 20
-5.339651906365303
 30
0.0
 10
-26.52570063025214
 20
-5.089101537795058
 30
0.0
 10
-26.46127306352763
 20
-4.843271618550339
 30
0.0
 10
-26.22398131287213
 20
-4.266036038570478
 30
0.0
 10
-26.01748100359885
 20
-3.954073954365507
 30
0.0
 10
-25.49650851063028
 20
-3.426848963536092
 30
0.0
 10
-25.18701957328659
 20
-3.216629105318395
 30
0.0
 10
-24.67032774283943
 20
-2.996985821567493
 30
0.0
 10
-24.48764534511046
 20
-2.940182084638881
 30
0.0
 10
-24.11366857114825
 20
-2.863992524332539
 30
0.0
 10
-23.92332083167411
 20
-2.844799999999994
 30
0.0
 10
-23.73249000000003
 20
-2.844799999999994
 30
0.0
  0
LINE
  5
1207E
330
1206C
100
AcDbEntity
  8
0
100
AcDbLine
 10
24.52623999999995
 20
-2.957723140123238
 30
0.0
 11
24.52623999999994
 21
-6.378050773338004
 31
0.0
  0
LINE
  5
1207F
330
1206C
100
AcDbEntity
  8
0
100
AcDbLine
 10
24.5262399999999
 20
-14.58761026755065
 30
0.0
 11
24.52623999999977
 21
-57.53560269887834
 31
0.0
  0
LINE
  5
12080
330
1206C
100
AcDbEntity
  8
0
100
AcDbLine
 10
24.52623999999977
 20
-63.38522269887833
 30
0.0
 11
24.52623999999979
 21
-57.53560269887834
 31
0.0
  0
SPLINE
  5
12081
330
1206C
100
AcDbEntity
  8
0
100
AcDbSpline
210
0.0
220
0.0
230
1.0
 70
     8
 71
     3
 72
     8
 73
     4
 74
     0
 42
0.000000001
 43
0.0000000001
 40
0.0
 40
0.0
 40
0.0
 40
0.0
 40
0.0358810580955392
 40
0.0358810580955392
 40
0.0358810580955392
 40
0.0358810580955392
 10
-26.55685069807891
 20
-5.339651906365294
 30
0.0
 10
-26.5716040161305
 20
-5.458317756340776
 30
0.0
 10
-26.57818375741604
 20
-5.576610173916556
 30
0.0
 10
-26.57751215882158
 20
-5.689600006645366
 30
0.0
  0
SPLINE
  5
12082
330
1206C
100
AcDbEntity
  8
0
100
AcDbSpline
210
0.0
220
0.0
230
1.0
 70
     8
 71
     3
 72
    16
 73
    12
 74
     0
 42
0.000000001
 43
0.0000000001
 40
0.0356952441698204
 40
0.0356952441698204
 40
0.0356952441698204
 40
0.0356952441698204
 40
0.0396892199073866
 40
0.0396892199073866
 40
0.0793786315890578
 40
0.0793786315890578
 40
0.1190682998304105
 40
0.1190682998304105
 40
0.1406495564005882
 40
0.1406495564005882
 40
0.1622309307189279
 40
0.1622309307189279
 40
0.1622309307189279
 40
0.1622309307189279
 10
-26.57751215882147
 20
-5.689600006646053
 30
0.0
 10
-26.57743738033581
 20
-5.702180753503562
 30
0.0
 10
-26.57735823688452
 20
-5.714686981224705
 30
0.0
 10
-26.57644512766653
 20
-5.850573958997608
 30
0.0
 10
-26.57520257027864
 20
-5.963571481776874
 30
0.0
 10
-26.57203145903827
 20
-6.155916145860164
 30
0.0
 10
-26.57013321864667
 20
-6.233424131633013
 30
0.0
 10
-26.56688505691084
 20
-6.317528704917379
 30
0.0
 10
-26.56568928651586
 20
-6.340106645073262
 30
0.0
 10
-26.56323464265882
 20
-6.370410477157876
 30
0.0
 10
-26.56198269564049
 20
-6.378050773338119
 30
0.0
 10
-26.56072720575217
 20
-6.378050773338119
 30
0.0
  0
LINE
  5
12083
330
1206C
100
AcDbEntity
  8
0
100
AcDbLine
 10
-26.560727205789
 20
-6.378050773338118
 30
0.0
 11
-26.49896579623437
 21
-6.378050773338118
 31
0.0
  0
LINE
  5
12084
330
1206C
100
AcDbEntity
  8
0
100
AcDbLine
 10
26.54879698504359
 20
-6.378050773338131
 30
0.0
 11
26.56072720575376
 21
-6.378050773338131
 31
0.0
  0
LINE
  5
12085
330
1206C
100
AcDbEntity
  8
0
100
AcDbLine
 10
-24.52623999999993
 20
-6.37805077333822
 30
0.0
 11
23.70443026186269
 21
-6.378050773338127
 31
0.0
  0
LINE
  5
12086
330
1206C
100
AcDbEntity
  8
0
100
AcDbLine
 10
-24.52623999999997
 20
-14.58761026755064
 30
0.0
 11
24.5262399999999
 21
-14.58761026755065
 31
0.0
  0
SPLINE
  5
12087
330
1206C
100
AcDbEntity
  8
0
100
AcDbSpline
210
0.0
220
0.0
230
1.0
 70
     8
 71
     3
 72
    10
 73
     6
 74
     0
 42
0.000000001
 43
0.0000000001
 40
0.1271033214135269
 40
0.1271033214135269
 40
0.1271033214135269
 40
0.1271033214135269
 40
0.1404544927291856
 40
0.1404544927291856
 40
0.1628744344980081
 40
0.1628744344980081
 40
0.1628744344980081
 40
0.1628744344980081
 10
26.57751215884456
 20
-5.689600002754636
 30
0.0
 10
26.57776175620756
 20
-5.64760770053113
 30
0.0
 10
26.57703061632377
 20
-5.604701933969606
 30
0.0
 10
26.57216205282833
 20
-5.487980701549629
 30
0.0
 10
26.56606284461184
 20
-5.413748268595401
 30
0.0
 10
26.55685069807885
 20
-5.339651906365197
 30
0.0
  0
SPLINE
  5
12088
330
1206C
100
AcDbEntity
  8
0
100
AcDbSpline
210
0.0
220
0.0
230
1.0
 70
     8
 71
     3
 72
    14
 73
    10
 74
     0
 42
0.000000001
 43
0.0000000001
 40
0.0
 40
0.0
 40
0.0
 40
0.0
 40
0.0396895638798022
 40
0.0396895638798022
 40
0.0793791017010531
 40
0.0793791017010531
 40
0.1190685857010526
 40
0.1190685857010526
 40
0.1266219887706286
 40
0.1266219887706286
 40
0.1266219887706286
 40
0.1266219887706286
 10
26.5607272057521
 20
-6.378050773338136
 30
0.0
 10
26.5630361337526
 20
-6.378050773338136
 30
0.0
 10
26.56532298778981
 20
-6.352210057696046
 30
0.0
 10
26.56959510668731
 20
-6.251756137842789
 30
0.0
 10
26.57153952880729
 20
-6.178103339175281
 30
0.0
 10
26.5748262050626
 20
-5.992237370509013
 30
0.0
 10
26.57613703761351
 20
-5.881801229409226
 30
0.0
 10
26.57721372779015
 20
-5.736912453556306
 30
0.0
 10
26.57737067534097
 20
-5.713403215009816
 30
0.0
 10
26.57751215884454
 20
-5.689600002754765
 30
0.0
  0
LINE
  5
12089
330
1206C
100
AcDbEntity
  8
0
100
AcDbLine
 10
31.74999999999986
 20
0.0
 30
0.0
 11
19.84374999999986
 21
0.0
 31
0.0
  0
LINE
  5
1208A
330
1206C
100
AcDbEntity
  8
0
100
AcDbLine
 10
19.84374999999986
 20
0.0
 30
0.0
 11
19.84374999999986
 21
-2.844800000000004
 31
0.0
  0
LINE
  5
1208B
330
1206C
100
AcDbEntity
  8
0
100
AcDbLine
 10
19.84374999999986
 20
-2.844800000000004
 30
0.0
 11
31.74999999999986
 21
-2.844800000000007
 31
0.0
  0
LINE
  5
1208C
330
1206C
100
AcDbEntity
  8
0
100
AcDbLine
 10
31.74999999999986
 20
-2.844800000000007
 30
0.0
 11
31.74999999999986
 21
0.0
 31
0.0
  0
LINE
  5
1208D
330
1206C
100
AcDbEntity
  8
0
100
AcDbLine
 10
-31.75000000000013
 20
-2.844799999999993
 30
0.0
 11
-19.84375000000013
 21
-2.844799999999995
 31
0.0
  0
LINE
  5
1208E
330
1206C
100
AcDbEntity
  8
0
100
AcDbLine
 10
-19.84375000000013
 20
0.0
 30
0.0
 11
-31.75000000000013
 21
0.0
 31
0.0
  0
LINE
  5
1208F
330
1206C
100
AcDbEntity
  8
0
100
AcDbLine
 10
-31.75000000000013
 20
0.0
 30
0.0
 11
-31.75000000000013
 21
-2.844799999999993
 31
0.0
  0
LINE
  5
12090
330
1206C
100
AcDbEntity
  8
0
100
AcDbLine
 10
-19.84375000000013
 20
-2.844799999999995
 30
0.0
 11
-19.84375000000013
 21
0.0
 31
0.0
  0
LINE
  5
12091
330
1206C
100
AcDbEntity
  8
0
100
AcDbLine
 10
19.84374999999986
 20
-2.844800000000004
 30
0.0
 11
-19.84375000000014
 21
-2.844799999999995
 31
0.0
  0
LINE
  5
12092
330
1206C
100
AcDbEntity
  8
0
100
AcDbLine
 10
19.84374999999986
 20
0.0
 30
0.0
 11
-19.84375000000014
 21
0.0
 31
0.0
  0
ELLIPSE
  5
12093
330
1206C
100
AcDbEntity
  8
0
100
AcDbEllipse
 10
26.26979316565084
 20
-5.689600000000005
 30
0.0
 11
-2.098941014568588
 21
-2.023885778974235
 31
0.0
210
0.0
220
0.0
230
1.0
 40
0.9524770690566807
 41
2.350056832083305
 42
2.358995447861826
  0
LINE
  5
12094
330
1206C
100
AcDbEntity
  8
0
100
AcDbLine
 10
29.11626493654911
 20
-5.689600000000012
 30
0.0
 11
31.96273670744739
 21
-5.689600000000012
 31
0.0
  0
LINE
  5
12095
330
1206C
100
AcDbEntity
  8
0
100
AcDbLine
 10
31.77948455041033
 20
-3.051963557481287
 30
0.0
 11
31.96273670744739
 21
-5.689600000000012
 31
0.0
  0
SPLINE
  5
12096
330
1206C
100
AcDbEntity
  8
0
100
AcDbSpline
210
0.0
220
0.0
230
1.0
 70
     8
 71
     3
 72
    16
 73
    12
 74
     0
 42
0.000000001
 43
0.0000000001
 40
-0.6535552918003738
 40
-0.6535552918003738
 40
-0.6535552918003738
 40
-0.6535552918003738
 40
-0.5440372284880662
 40
-0.5440372284880662
 40
-0.4153261261667753
 40
-0.4153261261667753
 40
-0.2323475610793966
 40
-0.2323475610793966
 40
-0.1902941471998348
 40
-0.1902941471998348
 40
-0.1778435367624424
 40
-0.1778435367624424
 40
-0.1778435367624424
 40
-0.1778435367624424
 10
29.11738969994597
 20
-5.664171764450919
 30
0.0
 10
29.13566944675972
 20
-5.360185913723523
 30
0.0
 10
29.26349223035661
 20
-5.06088790809049
 30
0.0
 10
29.77170091016212
 20
-4.424948594494209
 30
0.0
 10
30.15270617775926
 20
-4.140573634774098
 30
0.0
 10
31.00289940683976
 20
-3.594793490570356
 30
0.0
 10
31.48523848934435
 20
-3.365830308464717
 30
0.0
 10
31.73023767223327
 20
-3.157203148822704
 30
0.0
 10
31.7634610361157
 20
-3.119410550554739
 30
0.0
 10
31.77857421867511
 20
-3.073238211285194
 30
0.0
 10
31.78022306640145
 20
-3.062593373375681
 30
0.0
 10
31.77948455041033
 20
-3.051963557481287
 30
0.0
  0
LINE
  5
12097
330
1206C
100
AcDbEntity
  8
0
100
AcDbLine
 10
29.11719191926754
 20
-5.713369692915241
 30
0.0
 11
29.11626493654911
 21
-5.689600000000012
 31
0.0
  0
LINE
  5
12098
330
1206C
100
AcDbEntity
  8
0
100
AcDbLine
 10
31.96273670744739
 20
-5.689600000000012
 30
0.0
 11
29.11719191926754
 21
-5.713369692915241
 31
0.0
  0
SPLINE
  5
12099
330
1206C
100
AcDbEntity
  8
0
100
AcDbSpline
210
0.0
220
0.0
230
1.0
 70
     8
 71
     3
 72
     8
 73
     4
 74
     0
 42
0.000000001
 43
0.0000000001
 40
-0.1208672268700925
 40
-0.1208672268700925
 40
-0.1208672268700925
 40
-0.1208672268700925
 40
0.0
 40
0.0
 40
0.0
 40
0.0
 10
31.77948455041033
 20
-3.051963557481298
 30
0.0
 10
31.77004190042334
 20
-2.916050954200973
 30
0.0
 10
31.76003910223795
 20
-2.844800000000006
 30
0.0
 10
31.7499999999999
 20
-2.844800000000007
 30
0.0
  0
SPLINE
  5
1209A
330
1206C
100
AcDbEntity
  8
0
100
AcDbSpline
210
0.0
220
0.0
230
1.0
 70
     8
 71
     3
 72
    20
 73
    16
 74
     0
 42
0.000000001
 43
0.0000000001
 40
-0.1598489025672319
 40
-0.1598489025672319
 40
-0.1598489025672319
 40
-0.1598489025672319
 40
-0.1367479564213064
 40
-0.1367479564213064
 40
-0.1153474572880917
 40
-0.1153474572880917
 40
-0.0844356954462309
 40
-0.0844356954462309
 40
-0.0498366858531828
 40
-0.0498366858531828
 40
-0.0233359865424743
 40
-0.0233359865424743
 40
-0.0083287469209576
 40
-0.0083287469209576
 40
0.0
 40
0.0
 40
0.0
 40
0.0
 10
31.7499999999999
 20
-0.000000000000007
 30
0.0
 10
31.76822676893718
 20
-0.0000000000000071
 30
0.0
 10
31.78627419038319
 20
-0.1170646193110103
 30
0.0
 10
31.81990530374971
 20
-0.5320908661836472
 30
0.0
 10
31.83532808979571
 20
-0.8128805521405652
 30
0.0
 10
31.87108798478935
 20
-1.652685070441467
 30
0.0
 10
31.89015092891299
 20
-2.269588512062629
 30
0.0
 10
31.92755071936164
 20
-3.72162851092597
 30
0.0
 10
31.94398328264999
 20
-4.513114053329775
 30
0.0
 10
31.95716245576891
 20
-5.183553588471428
 30
0.0
 10
31.95968751885044
 20
-5.339815195821687
 30
0.0
 10
31.96178571112917
 20
-5.506130529903613
 30
0.0
 10
31.96226832224761
 20
-5.558546960988111
 30
0.0
 10
31.96266152402537
 20
-5.634640376046205
 30
0.0
 10
31.9627367074474
 20
-5.661837510263486
 30
0.0
 10
31.9627367074474
 20
-5.689600000000012
 30
0.0
  0
LINE
  5
1209B
330
1206C
100
AcDbEntity
  8
0
100
AcDbLine
 10
-29.11626493654923
 20
-5.689600000000007
 30
0.0
 11
-29.1175033646282
 21
-5.689600000000007
 31
0.0
  0
LINE
  5
1209C
330
1206C
100
AcDbEntity
  8
0
100
AcDbLine
 10
-31.96273670744751
 20
-5.689600000000007
 30
0.0
 11
-29.1175033646282
 21
-5.689600000000007
 31
0.0
  0
ELLIPSE
  5
1209D
330
1206C
100
AcDbEntity
  8
0
100
AcDbEllipse
 10
-26.26979316565095
 20
-5.689599999999995
 30
0.0
 11
-2.098941014568808
 21
2.023885778974012
 31
0.0
210
0.0
220
0.0
230
1.0
 40
0.9524770690566795
 41
0.7825972057278489
 42
0.7915358215063774
  0
SPLINE
  5
1209E
330
1206C
100
AcDbEntity
  8
0
100
AcDbSpline
210
0.0
220
0.0
230
1.0
 70
     8
 71
     3
 72
    16
 73
    12
 74
     0
 42
0.000000001
 43
0.0000000001
 40
-1.16233960369339
 40
-1.16233960369339
 40
-1.16233960369339
 40
-1.16233960369339
 40
-1.147834256298444
 40
-1.147834256298444
 40
-1.036972199348643
 40
-1.036972199348643
 40
-0.645255720822963
 40
-0.645255720822963
 40
-0.2954461127886836
 40
-0.2954461127886836
 40
0.0
 40
0.0
 40
0.0
 40
0.0
 10
-31.77948455041048
 20
-3.051963557481282
 30
0.0
 10
-31.77980233775019
 20
-3.05653762352082
 30
0.0
 10
-31.77967857467587
 20
-3.061122903501971
 30
0.0
 10
-31.77515371688906
 20
-3.100788378347044
 30
0.0
 10
-31.74748433013298
 20
-3.13909792047608
 30
0.0
 10
-31.54217478147737
 20
-3.327004260279259
 30
0.0
 10
-31.15503911134929
 20
-3.518978775113711
 30
0.0
 10
-30.33917014601564
 20
-4.010193613962523
 30
0.0
 10
-29.89076265761827
 20
-4.312395747307958
 30
0.0
 10
-29.2879733074404
 20
-5.005945284710916
 30
0.0
 10
-29.13736326506716
 20
-5.33201830263016
 30
0.0
 10
-29.11738969994607
 20
-5.664171764450886
 30
0.0
  0
LINE
  5
1209F
330
1206C
100
AcDbEntity
  8
0
100
AcDbLine
 10
-31.96273670744751
 20
-5.689600000000007
 30
0.0
 11
-31.77948455041048
 21
-3.051963557481282
 31
0.0
  0
SPLINE
  5
120A0
330
1206C
100
AcDbEntity
  8
0
100
AcDbSpline
210
0.0
220
0.0
230
1.0
 70
     8
 71
     3
 72
    10
 73
     6
 74
     0
 42
0.000000001
 43
0.0000000001
 40
-0.4780248249070636
 40
-0.4780248249070636
 40
-0.4780248249070636
 40
-0.4780248249070636
 40
-0.3962814415815732
 40
-0.3962814415815732
 40
-0.3577207361501183
 40
-0.3577207361501183
 40
-0.3577207361501183
 40
-0.3577207361501183
 10
-31.74999999999997
 20
-2.844799999999993
 30
0.0
 10
-31.75681586168305
 20
-2.844799999999993
 30
0.0
 10
-31.76361890049209
 20
-2.877627603625992
 30
0.0
 10
-31.77337392281609
 20
-2.971475473671527
 30
0.0
 10
-31.77645893851258
 20
-3.008413809091211
 30
0.0
 10
-31.77948455041048
 20
-3.051963557481272
 30
0.0
  0
SPLINE
  5
120A1
330
1206C
100
AcDbEntity
  8
0
100
AcDbSpline
210
0.0
220
0.0
230
1.0
 70
     8
 71
     3
 72
    22
 73
    18
 74
     0
 42
0.000000001
 43
0.0000000001
 40
-1.151047167356734
 40
-1.151047167356734
 40
-1.151047167356734
 40
-1.151047167356734
 40
-1.132990630922099
 40
-1.132990630922099
 40
-1.109750141949319
 40
-1.109750141949319
 40
-1.017289431522981
 40
-1.017289431522981
 40
-0.8803209745715301
 40
-0.8803209745715301
 40
-0.8219804066584654
 40
-0.8219804066584654
 40
-0.5620159928507406
 40
-0.5620159928507406
 40
-0.2615037979130161
 40
-0.2615037979130161
 40
0.0
 40
0.0
 40
0.0
 40
0.0
 10
-31.9627367074475
 20
-5.689600000000003
 30
0.0
 10
-31.9627367074475
 20
-5.66964557258476
 30
0.0
 10
-31.96269790232492
 20
-5.649919712874725
 30
0.0
 10
-31.9625267829669
 20
-5.604814168026979
 30
0.0
 10
-31.96237268925755
 20
-5.579959597575853
 30
0.0
 10
-31.96139655551882
 20
-5.458478936109333
 30
0.0
 10
-31.95971173501723
 20
-5.33855473414892
 30
0.0
 10
-31.95159342903537
 20
-4.887016778656706
 30
0.0
 10
-31.94365738069475
 20
-4.502505459089459
 30
0.0
 10
-31.9329838109665
 20
-4.012353508093646
 30
0.0
 10
-31.92971926546129
 20
-3.86615939598599
 30
0.0
 10
-31.91177023311273
 20
-3.084210587795618
 30
0.0
 10
-31.89590810836067
 20
-2.471869528919822
 30
0.0
 10
-31.8587377926581
 20
-1.319738790029057
 30
0.0
 10
-31.83713925366885
 20
-0.8101561828613824
 30
0.0
 10
-31.79312979990659
 20
-0.1659320256982763
 30
0.0
 10
-31.77172022500701
 20
0.0000000000000065
 30
0.0
 10
-31.75000000000582
 20
0.000000000000007
 30
0.0
  0
CIRCLE
  5
120A2
330
1206C
100
AcDbEntity
  8
0
100
AcDbCircle
 10
0.0000000000000952
 20
-33.33749999999997
 30
0.0
 40
8.724900000000001
  0
LINE
  5
120A3
330
1206C
100
AcDbEntity
  8
0
100
AcDbLine
 10
26.54879698504358
 20
-57.53560269887838
 30
0.0
 11
29.11719191926754
 21
-5.713369692915239
 31
0.0
  0
LINE
  5
120A4
330
1206C
100
AcDbEntity
  8
0
100
AcDbLine
 10
26.54879698504358
 20
-57.53560269887838
 30
0.0
 11
29.39316370822448
 21
-57.53560269887838
 31
0.0
  0
LINE
  5
120A5
330
1206C
100
AcDbEntity
  8
0
100
AcDbLine
 10
31.96273670744739
 20
-5.689600000000012
 30
0.0
 11
29.39316370822448
 21
-57.53560269887838
 31
0.0
  0
SPLINE
  5
120A6
330
1206C
100
AcDbEntity
  8
0
100
AcDbSpline
210
0.0
220
0.0
230
1.0
 70
     8
 71
     3
 72
    16
 73
    12
 74
     0
 42
0.000000001
 43
0.0000000001
 40
0.0
 40
0.0
 40
0.0
 40
0.0
 40
0.1112442988757205
 40
0.1112442988757205
 40
0.2224299255224675
 40
0.2224299255224675
 40
0.3336155270284545
 40
0.3336155270284545
 40
0.3908647803534877
 40
0.3908647803534877
 40
0.4129902421055325
 40
0.4129902421055325
 40
0.4129902421055325
 40
0.4129902421055325
 10
23.73248999999997
 20
-2.844800000000005
 30
0.0
 10
24.10330012465039
 20
-2.844800000000006
 30
0.0
 10
24.47055961111118
 20
-2.917266649319585
 30
0.0
 10
25.15641077578625
 20
-3.198888622866331
 30
0.0
 10
25.4684676825881
 20
-3.405278030311682
 30
0.0
 10
25.99589975393458
 20
-3.926042458785316
 30
0.0
 10
26.20622993054268
 20
-4.235436182399
 30
0.0
 10
26.42605743653668
 20
-4.751989011364246
 30
0.0
 10
26.48292632093394
 20
-4.934625426550453
 30
0.0
 10
26.53583805607438
 20
-5.193815770714964
 30
0.0
 10
26.54776417742651
 20
-5.266565994926829
 30
0.0
 10
26.55685069807885
 20
-5.3396519063652
 30
0.0
  0
LINE
  5
120A7
330
1206C
100
AcDbEntity
  8
0
100
AcDbLine
 10
26.54879698504359
 20
-6.378050773338131
 30
0.0
 11
23.70443026186269
 21
-6.378050773338124
 31
0.0
  0
LINE
  5
120A8
330
1206C
100
AcDbEntity
  8
0
100
AcDbLine
 10
24.52623999999978
 20
-57.53560269887842
 30
0.0
 11
26.54879698504358
 21
-57.53560269887839
 31
0.0
  0
LINE
  5
120A9
330
1206C
100
AcDbEntity
  8
0
100
AcDbLine
 10
24.52623999999977
 20
-63.38522269887835
 30
0.0
 11
-24.52623999999985
 21
-63.38522269887832
 31
0.0
  0
ENDBLK
  5
1206E
330
1206C
100
AcDbEntity
  8
0
100
AcDbBlockEnd
  0
BLOCK
  5
120AB
330
120AA
100
AcDbEntity
  8
0
100
AcDbBlockBegin
  2
HTT5-Bottom
 70
     0
 10
0.0
 20
0.0
 30
0.0
  3
HTT5-Bottom
  1

  0
SPLINE
  5
120AD
330
120AA
100
AcDbEntity
  8
0
100
AcDbSpline
210
0.0
220
0.0
230
1.0
 70
     8
 71
     3
 72
    16
 73
    12
 74
     0
 42
0.000000001
 43
0.0000000001
 40
0.0
 40
0.0
 40
0.0
 40
0.0
 40
0.0428423897049165
 40
0.0428423897049165
 40
0.0831477185008952
 40
0.0831477185008952
 40
0.1225143143206055
 40
0.1225143143206055
 40
0.1430971646855523
 40
0.1430971646855523
 40
0.1636604262608854
 40
0.1636604262608854
 40
0.1636604262608854
 40
0.1636604262608854
 10
-25.54927582106264
 20
0.2978345365279251
 30
0.0
 10
-25.41394472374328
 20
0.2522383981468748
 30
0.0
 10
-25.27814445798977
 20
0.2125129171903121
 30
0.0
 10
-25.02959157608807
 20
0.1489811800852868
 30
0.0
 10
-24.91896669023329
 20
0.1250491106562286
 30
0.0
 10
-24.73302382973438
 20
0.0891328072841517
 30
0.0
 10
-24.65916922866427
 20
0.0772007093007285
 30
0.0
 10
-24.58101476774946
 20
0.0653828189133293
 30
0.0
 10
-24.56056660519244
 20
0.0625095453375778
 30
0.0
 10
-24.53314961685015
 20
0.0588185402238423
 30
0.0
 10
-24.52624
 20
0.0580069107039053
 30
0.0
 10
-24.52624
 20
0.0581789521197984
 30
0.0
  0
SPLINE
  5
120AE
330
120AA
100
AcDbEntity
  8
0
100
AcDbSpline
210
0.0
220
0.0
230
1.0
 70
     8
 71
     3
 72
    16
 73
    12
 74
     0
 42
0.000000001
 43
0.0000000001
 40
0.0
 40
0.0
 40
0.0
 40
0.0
 40
0.0393055842811337
 40
0.0393055842811337
 40
0.0787112030855569
 40
0.0787112030855569
 40
0.1184454968051015
 40
0.1184454968051015
 40
0.1407236048269712
 40
0.1407236048269712
 40
0.1633022578478116
 40
0.1633022578478116
 40
0.1633022578478116
 40
0.1633022578478116
 10
24.52623999999994
 20
0.0581789521198074
 30
0.0
 10
24.52623999999994
 20
0.0578494223210712
 30
0.0
 10
24.55160640936143
 20
0.0610159677804149
 30
0.0
 10
24.65007226062156
 20
0.0757556043038083
 30
0.0
 10
24.72226290910511
 20
0.0872733539391896
 30
0.0
 10
24.90430776270975
 20
0.1220239997499562
 30
0.0
 10
25.01225405327807
 20
0.1450446200901986
 30
0.0
 10
25.19654046786879
 20
0.1914364833705373
 30
0.0
 10
25.26522636712665
 20
0.2100263685961944
 30
0.0
 10
25.40610037214237
 20
0.2512357077683178
 30
0.0
 10
25.4778581875822
 20
0.2737723042433875
 30
0.0
 10
25.54927582106258
 20
0.2978345365279366
 30
0.0
  0
SPLINE
  5
120AF
330
120AA
100
AcDbEntity
  8
0
100
AcDbSpline
210
0.0
220
0.0
230
1.0
 70
     8
 71
     3
 72
    16
 73
    12
 74
     0
 42
0.000000001
 43
0.0000000001
 40
-0.1969447702819867
 40
-0.1969447702819867
 40
-0.1969447702819867
 40
-0.1969447702819867
 40
-0.1738095768900161
 40
-0.1738095768900161
 40
-0.145790935774852
 40
-0.145790935774852
 40
-0.1012418803306714
 40
-0.1012418803306714
 40
-0.0538491035524422
 40
-0.0538491035524422
 40
-0.0193284650332867
 40
-0.0193284650332867
 40
-0.0193284650332867
 40
-0.0193284650332867
 10
-24.52624
 20
2.938958711969368
 30
0.0
 10
-24.52624
 20
2.940199086728499
 30
0.0
 10
-24.53283360860762
 20
2.943017922029725
 30
0.0
 10
-24.56164079216685
 20
2.953325539544335
 30
0.0
 10
-24.58673939180128
 20
2.961623993870365
 30
0.0
 10
-24.67378051073517
 20
2.992049945702762
 30
0.0
 10
-24.74738592320239
 20
3.019005570494555
 30
0.0
 10
-24.92909805145816
 20
3.099182070701766
 30
0.0
 10
-25.03495237872816
 20
3.152419927241616
 30
0.0
 10
-25.22606577023156
 20
3.267445528373765
 30
0.0
 10
-25.31023301330396
 20
3.323552291294351
 30
0.0
 10
-25.39633641432826
 20
3.38816927686959
 30
0.0
  0
SPLINE
  5
120B0
330
120AA
100
AcDbEntity
  8
0
100
AcDbSpline
210
0.0
220
0.0
230
1.0
 70
     8
 71
     3
 72
    18
 73
    14
 74
     0
 42
0.000000001
 43
0.0000000001
 40
0.5796661010826976
 40
0.5796661010826976
 40
0.5796661010826976
 40
0.5796661010826976
 40
0.7199100525720413
 40
0.7199100525720413
 40
0.7493710275989283
 40
0.7493710275989283
 40
0.7633975274796912
 40
0.7633975274796912
 40
0.768416159130391
 40
0.768416159130391
 40
0.7713189023504839
 40
0.7713189023504839
 40
0.7741660367646163
 40
0.7741660367646163
 40
0.7741660367646163
 40
0.7741660367646163
 10
-25.39633641432845
 20
3.388169276867605
 30
0.0
 10
-25.43657639134252
 20
2.950508681922451
 30
0.0
 10
-25.46879917293377
 20
2.63315907435258
 30
0.0
 10
-25.50749827189341
 20
2.445509499317739
 30
0.0
 10
-25.51472075039811
 20
2.417599490872382
 30
0.0
 10
-25.52612845073208
 20
2.39021617285684
 30
0.0
 10
-25.52987549159916
 20
2.383627021331231
 30
0.0
 10
-25.53507343282803
 20
2.378197352511007
 30
0.0
 10
-25.53668400073189
 20
2.376857957241835
 30
0.0
 10
-25.53952974106434
 20
2.375548875129666
 30
0.0
 10
-25.54062598030494
 20
2.375244364276179
 30
0.0
 10
-25.54289616697334
 20
2.375114103547008
 30
0.0
 10
-25.54399090822919
 20
2.375283709569974
 30
0.0
 10
-25.545055241456
 20
2.375651037205258
 30
0.0
  0
SPLINE
  5
120B1
330
120AA
100
AcDbEntity
  8
0
100
AcDbSpline
210
0.0
220
0.0
230
1.0
 70
     8
 71
     3
 72
    22
 73
    18
 74
     0
 42
0.000000001
 43
0.0000000001
 40
0.0
 40
0.0
 40
0.0
 40
0.0
 40
0.0003426164651788
 40
0.0003426164651788
 40
0.0006766732291274
 40
0.0006766732291274
 40
0.0011414560916268
 40
0.0011414560916268
 40
0.0020756938930519
 40
0.0020756938930519
 40
0.0047192259367223
 40
0.0047192259367223
 40
0.0136443929705832
 40
0.0136443929705832
 40
0.0311331876166317
 40
0.0311331876166317
 40
0.0385542814108936
 40
0.0385542814108936
 40
0.0385542814108936
 40
0.0385542814108936
 10
25.54505524145603
 20
2.375651037208748
 30
0.0
 10
25.54397567249866
 20
2.375278451347238
 30
0.0
 10
25.54286546650285
 20
2.375109511878565
 30
0.0
 10
25.54061430755603
 20
2.375251489274812
 30
0.0
 10
25.53955005193668
 20
2.375545795866565
 30
0.0
 10
25.53712556231062
 20
2.376646472327581
 30
0.0
 10
25.53583973608113
 20
2.377596199234916
 30
0.0
 10
25.53241597214964
 20
2.380755641703191
 30
0.0
 10
25.53041647914828
 20
2.383561824132726
 30
0.0
 10
25.5242368217807
 20
2.393692565392988
 30
0.0
 10
25.52025162505869
 20
2.403988274100901
 30
0.0
 10
25.50598339716244
 20
2.447386813288368
 30
0.0
 10
25.49500433746472
 20
2.501870515562704
 30
0.0
 10
25.4618526367155
 20
2.718422237002372
 30
0.0
 10
25.43985727849414
 20
2.930237630574144
 30
0.0
 10
25.41280518795034
 20
3.210336156007907
 30
0.0
 10
25.40474835781822
 20
3.296678762565872
 30
0.0
 10
25.39633641432794
 20
3.388169276869402
 30
0.0
  0
SPLINE
  5
120B2
330
120AA
100
AcDbEntity
  8
0
100
AcDbSpline
210
0.0
220
0.0
230
1.0
 70
     8
 71
     3
 72
    16
 73
    12
 74
     0
 42
0.000000001
 43
0.0000000001
 40
-0.1551265878923864
 40
-0.1551265878923864
 40
-0.1551265878923864
 40
-0.1551265878923864
 40
-0.126487070258704
 40
-0.126487070258704
 40
-0.0895242243709724
 40
-0.0895242243709724
 40
-0.0501065644588061
 40
-0.0501065644588061
 40
-0.0221900570286077
 40
-0.0221900570286077
 40
0.0
 40
0.0
 40
0.0
 40
0.0
 10
25.39633641432794
 20
3.388169276869405
 30
0.0
 10
25.32039481690013
 20
3.331178298032599
 30
0.0
 10
25.24295344041039
 20
3.278595417507293
 30
0.0
 10
25.06600835006154
 20
3.17009994558656
 30
0.0
 10
24.96936233666601
 20
3.119409442554654
 30
0.0
 10
24.78707478066101
 20
3.034935601968253
 30
0.0
 10
24.70641966831819
 20
3.004079181005804
 30
0.0
 10
24.60251247512644
 20
2.966876182254953
 30
0.0
 10
24.57026915443732
 20
2.95627645149234
 30
0.0
 10
24.53431795239381
 20
2.943631836754952
 30
0.0
 10
24.52623999999994
 20
2.940331508156798
 30
0.0
 10
24.52623999999994
 20
2.938958711969379
 30
0.0
  0
SPLINE
  5
120B3
330
120AA
100
AcDbEntity
  8
0
100
AcDbSpline
210
0.0
220
0.0
230
1.0
 70
     8
 71
     3
 72
     8
 73
     4
 74
     0
 42
0.000000001
 43
0.0000000001
 40
0.1124934605160943
 40
0.1124934605160943
 40
0.1124934605160943
 40
0.1124934605160943
 40
0.210398386415826
 40
0.210398386415826
 40
0.210398386415826
 40
0.210398386415826
 10
25.39633641432793
 20
3.388169276869399
 30
0.0
 10
25.13350053403725
 20
3.195019980947861
 30
0.0
 10
24.83900434332954
 20
3.049379347591638
 30
0.0
 10
24.52624000000011
 20
2.957723140123288
 30
0.0
  0
LINE
  5
120B4
330
120AA
100
AcDbEntity
  8
0
100
AcDbLine
 10
23.73248999999997
 20
0.0
 30
0.0
 11
24.52623999999995
 21
0.0
 31
0.0
  0
SPLINE
  5
120B5
330
120AA
100
AcDbEntity
  8
0
100
AcDbSpline
210
0.0
220
0.0
230
1.0
 70
     8
 71
     3
 72
    10
 73
     6
 74
     0
 42
0.000000001
 43
0.0000000001
 40
0.2555763673393015
 40
0.2555763673393015
 40
0.2555763673393015
 40
0.2555763673393015
 40
0.3279364488154201
 40
0.3279364488154201
 40
0.3534231846692945
 40
0.3534231846692945
 40
0.3534231846692945
 40
0.3534231846692945
 10
-24.52623999999998
 20
2.957723140123223
 30
0.0
 10
-24.75673175846124
 20
3.025270719188495
 30
0.0
 10
-24.97806878028244
 20
3.122358399780951
 30
0.0
 10
-25.25735175621377
 20
3.290818464404052
 30
0.0
 10
-25.32799788034994
 20
3.337949601848495
 30
0.0
 10
-25.39633641432826
 20
3.388169276869593
 30
0.0
  0
LINE
  5
120B6
330
120AA
100
AcDbEntity
  8
0
100
AcDbLine
 10
-23.73249000000001
 20
0.0
 30
0.0
 11
-24.52624000000001
 21
0.0
 31
0.0
  0
LINE
  5
120B7
330
120AA
100
AcDbEntity
  8
0
100
AcDbLine
 10
-24.52624
 20
0.0
 30
0.0
 11
-24.52623999999999
 21
6.959599999999973
 31
0.0
  0
LINE
  5
120B8
330
120AA
100
AcDbEntity
  8
0
100
AcDbLine
 10
-24.52623999999986
 20
57.53560269887831
 30
0.0
 11
-24.52623999999999
 21
6.959599999999976
 31
0.0
  0
LINE
  5
120B9
330
120AA
100
AcDbEntity
  8
0
100
AcDbLine
 10
-24.52623999999986
 20
57.53560269887831
 30
0.0
 11
-24.52623999999984
 21
63.38522269887832
 31
0.0
  0
SPLINE
  5
120BA
330
120AA
100
AcDbEntity
  8
0
100
AcDbSpline
210
0.0
220
0.0
230
1.0
 70
     8
 71
     3
 72
    12
 73
     8
 74
     0
 42
0.000000001
 43
0.0000000001
 40
0.0351753930425267
 40
0.0351753930425267
 40
0.0351753930425267
 40
0.0351753930425267
 40
0.1112442988749742
 40
0.1112442988749742
 40
0.2224299255202852
 40
0.2224299255202852
 40
0.2700274158978446
 40
0.2700274158978446
 40
0.2700274158978446
 40
0.2700274158978446
 10
-26.55685069807891
 20
5.339651906365303
 30
0.0
 10
-26.52570063025214
 20
5.089101537795058
 30
0.0
 10
-26.46127306352763
 20
4.843271618550339
 30
0.0
 10
-26.22398131287213
 20
4.266036038570478
 30
0.0
 10
-26.01748100359885
 20
3.954073954365507
 30
0.0
 10
-25.64548307470793
 20
3.577611459137557
 30
0.0
 10
-25.52499111442312
 20
3.474546293326456
 30
0.0
 10
-25.39688533162038
 20
3.382194685730834
 30
0.0
  0
SPLINE
  5
120BB
330
120AA
100
AcDbEntity
  8
0
100
AcDbSpline
210
0.0
220
0.0
230
1.0
 70
     8
 71
     3
 72
    14
 73
    10
 74
     0
 42
0.000000001
 43
0.0000000001
 40
0.1851893584318067
 40
0.1851893584318067
 40
0.1851893584318067
 40
0.1851893584318067
 40
0.3332420225619814
 40
0.3332420225619814
 40
0.5555305837976268
 40
0.5555305837976268
 40
0.7257097298732785
 40
0.7257097298732785
 40
0.8619517512949538
 40
0.8619517512949538
 40
0.8619517512949538
 40
0.8619517512949538
 10
-25.54927582106264
 20
0.2978345365279262
 30
0.0
 10
-26.01499016395337
 20
0.4547443380820801
 30
0.0
 10
-26.45942197801973
 20
0.6716681827942561
 30
0.0
 10
-27.48911981649645
 20
1.352566321631433
 30
0.0
 10
-28.02144234885524
 20
1.878068565907687
 30
0.0
 10
-28.75704822529251
 20
2.959889058538933
 30
0.0
 10
-29.00409184151465
 20
3.474044821638373
 30
0.0
 10
-29.30463915810852
 20
4.450210778646574
 30
0.0
 10
-29.38571669017598
 20
4.898281941185426
 30
0.0
 10
-29.41279491557013
 20
5.350783467538057
 30
0.0
  0
LINE
  5
120BC
330
120AA
100
AcDbEntity
  8
0
100
AcDbLine
 10
-24.52624000000001
 20
0.0
 30
0.0
 11
-26.27227002180889
 21
0.0
 31
0.0
  0
LINE
  5
120BD
330
120AA
100
AcDbEntity
  8
0
100
AcDbLine
 10
24.52623999999979
 20
57.53560269887832
 30
0.0
 11
24.52623999999977
 21
63.38522269887833
 31
0.0
  0
LINE
  5
120BE
330
120AA
100
AcDbEntity
  8
0
100
AcDbLine
 10
24.52623999999979
 20
57.53560269887832
 30
0.0
 11
24.52623999999993
 21
6.959599999999985
 31
0.0
  0
LINE
  5
120BF
330
120AA
100
AcDbEntity
  8
0
100
AcDbLine
 10
24.52623999999996
 20
0.0
 30
0.0
 11
24.52623999999993
 21
6.959599999999984
 31
0.0
  0
LINE
  5
120C0
330
120AA
100
AcDbEntity
  8
0
100
AcDbLine
 10
26.27227002180879
 20
0.0
 30
0.0
 11
24.52623999999996
 21
0.0
 31
0.0
  0
SPLINE
  5
120C1
330
120AA
100
AcDbEntity
  8
0
100
AcDbSpline
210
0.0
220
0.0
230
1.0
 70
     8
 71
     3
 72
    14
 73
    10
 74
     0
 42
0.000000001
 43
0.0000000001
 40
0.0339233798659583
 40
0.0339233798659583
 40
0.0339233798659583
 40
0.0339233798659583
 40
0.1109419577493421
 40
0.1109419577493421
 40
0.3332420225662758
 40
0.3332420225662758
 40
0.5555305838055659
 40
0.5555305838055659
 40
0.7106467842491409
 40
0.7106467842491409
 40
0.7106467842491409
 40
0.7106467842491409
 10
29.41279491557007
 20
5.350783467537932
 30
0.0
 10
29.39747560033782
 20
5.094783917181747
 30
0.0
 10
29.36486011061093
 20
4.839979900207869
 30
0.0
 10
29.17155301755049
 20
3.861186932425168
 30
0.0
 10
28.88737778257496
 20
3.169222768154008
 30
0.0
 10
28.06980778794706
 20
1.933186315881029
 30
0.0
 10
27.54424327034869
 20
1.400925027409625
 30
0.0
 10
26.50385767486448
 20
0.6936879671956638
 30
0.0
 10
26.03881783341219
 20
0.4627724242757371
 30
0.0
 10
25.54927582106259
 20
0.2978345365279388
 30
0.0
  0
SPLINE
  5
120C2
330
120AA
100
AcDbEntity
  8
0
100
AcDbSpline
210
0.0
220
0.0
230
1.0
 70
     8
 71
     3
 72
    14
 73
    10
 74
     0
 42
0.000000001
 43
0.0000000001
 40
0.1783567678411772
 40
0.1783567678411772
 40
0.1783567678411772
 40
0.1783567678411772
 40
0.2224299255224675
 40
0.2224299255224675
 40
0.3336155270284545
 40
0.3336155270284545
 40
0.3908647803534877
 40
0.3908647803534877
 40
0.4129902421055325
 40
0.4129902421055325
 40
0.4129902421055325
 40
0.4129902421055325
 10
25.39688537622737
 20
3.38219462403491
 30
0.0
 10
25.51551790838149
 20
3.467716830649316
 30
0.0
 10
25.62764865583574
 20
3.562446683984115
 30
0.0
 10
25.99589975393458
 20
3.926042458785316
 30
0.0
 10
26.20622993054268
 20
4.235436182399
 30
0.0
 10
26.42605743653668
 20
4.751989011364246
 30
0.0
 10
26.48292632093394
 20
4.934625426550453
 30
0.0
 10
26.53583805607438
 20
5.193815770714964
 30
0.0
 10
26.54776417742651
 20
5.266565994926829
 30
0.0
 10
26.55685069807885
 20
5.3396519063652
 30
0.0
  0
SPLINE
  5
120C3
330
120AA
100
AcDbEntity
  8
0
100
AcDbSpline
210
0.0
220
0.0
230
1.0
 70
     8
 71
     3
 72
     8
 73
     4
 74
     0
 42
0.000000001
 43
0.0000000001
 40
0.0
 40
0.0
 40
0.0
 40
0.0
 40
0.0346379770188381
 40
0.0346379770188381
 40
0.0346379770188381
 40
0.0346379770188381
 10
29.41279491557007
 20
5.350783467537933
 30
0.0
 10
29.41969148626283
 20
5.466031373177315
 30
0.0
 10
29.42259313466549
 20
5.580570597168322
 30
0.0
 10
29.42194507888786
 20
5.689599999995547
 30
0.0
  0
SPLINE
  5
120C4
330
120AA
100
AcDbEntity
  8
0
100
AcDbSpline
210
0.0
220
0.0
230
1.0
 70
     8
 71
     3
 72
    10
 73
     6
 74
     0
 42
0.000000001
 43
0.0000000001
 40
0.1271033214135269
 40
0.1271033214135269
 40
0.1271033214135269
 40
0.1271033214135269
 40
0.1404544927291856
 40
0.1404544927291856
 40
0.1628744344980081
 40
0.1628744344980081
 40
0.1628744344980081
 40
0.1628744344980081
 10
26.57751215884456
 20
5.689600002754636
 30
0.0
 10
26.57776175620756
 20
5.64760770053113
 30
0.0
 10
26.57703061632377
 20
5.604701933969606
 30
0.0
 10
26.57216205282833
 20
5.487980701549629
 30
0.0
 10
26.56606284461184
 20
5.413748268595401
 30
0.0
 10
26.55685069807885
 20
5.339651906365197
 30
0.0
  0
SPLINE
  5
120C5
330
120AA
100
AcDbEntity
  8
0
100
AcDbSpline
210
0.0
220
0.0
230
1.0
 70
     8
 71
     3
 72
    16
 73
    12
 74
     0
 42
0.000000001
 43
0.0000000001
 40
0.0345942891639972
 40
0.0345942891639972
 40
0.0345942891639972
 40
0.0345942891639972
 40
0.0396894627316788
 40
0.0396894627316788
 40
0.0793789376486438
 40
0.0793789376486438
 40
0.1190684283984565
 40
0.1190684283984565
 40
0.1400986231318568
 40
0.1400986231318568
 40
0.1611288249781504
 40
0.1611288249781504
 40
0.1611288249781504
 40
0.1611288249781504
 10
29.42194507888789
 20
5.689599999997798
 30
0.0
 10
29.42184972165892
 20
5.705642973593445
 30
0.0
 10
29.42174727307312
 20
5.721563655443393
 30
0.0
 10
29.42078490077665
 20
5.86028802146858
 30
0.0
 10
29.41952108342054
 20
5.972509037565564
 30
0.0
 10
29.41631385180772
 20
6.162876740896898
 30
0.0
 10
29.41440110018299
 20
6.239203394458509
 30
0.0
 10
29.41116661637114
 20
6.320551439805525
 30
0.0
 10
29.40999846801065
 20
6.342007461473951
 30
0.0
 10
29.40760375564757
 20
6.370795701085732
 30
0.0
 10
29.40638360849214
 20
6.378050773338132
 30
0.0
 10
29.4051601830487
 20
6.378050773338132
 30
0.0
  0
SPLINE
  5
120C6
330
120AA
100
AcDbEntity
  8
0
100
AcDbSpline
210
0.0
220
0.0
230
1.0
 70
     8
 71
     3
 72
    14
 73
    10
 74
     0
 42
0.000000001
 43
0.0000000001
 40
0.0
 40
0.0
 40
0.0
 40
0.0
 40
0.0396895638798022
 40
0.0396895638798022
 40
0.0793791017010531
 40
0.0793791017010531
 40
0.1190685857010526
 40
0.1190685857010526
 40
0.1266219887706286
 40
0.1266219887706286
 40
0.1266219887706286
 40
0.1266219887706286
 10
26.5607272057521
 20
6.378050773338136
 30
0.0
 10
26.5630361337526
 20
6.378050773338136
 30
0.0
 10
26.56532298778981
 20
6.352210057696046
 30
0.0
 10
26.56959510668731
 20
6.251756137842789
 30
0.0
 10
26.57153952880729
 20
6.178103339175281
 30
0.0
 10
26.5748262050626
 20
5.992237370509013
 30
0.0
 10
26.57613703761351
 20
5.881801229409226
 30
0.0
 10
26.57721372779015
 20
5.736912453556306
 30
0.0
 10
26.57737067534097
 20
5.713403215009816
 30
0.0
 10
26.57751215884454
 20
5.689600002754765
 30
0.0
  0
SPLINE
  5
120C7
330
120AA
100
AcDbEntity
  8
0
100
AcDbSpline
210
0.0
220
0.0
230
1.0
 70
     8
 71
     3
 72
    10
 73
     6
 74
     0
 42
0.000000001
 43
0.0000000001
 40
0.1267392499567436
 40
0.1267392499567436
 40
0.1267392499567436
 40
0.1267392499567436
 40
0.1400487004133504
 40
0.1400487004133504
 40
0.1612817381924433
 40
0.1612817381924433
 40
0.1612817381924433
 40
0.1612817381924433
 10
-29.42194507892894
 20
5.689599993099814
 30
0.0
 10
-29.42219427599818
 20
5.647674876830837
 30
0.0
 10
-29.42193041589235
 20
5.604837006595361
 30
0.0
 10
-29.41978028887875
 20
5.491980487430808
 30
0.0
 10
-29.41702182584079
 20
5.421418943880761
 30
0.0
 10
-29.41279491557013
 20
5.350783467538059
 30
0.0
  0
SPLINE
  5
120C8
330
120AA
100
AcDbEntity
  8
0
100
AcDbSpline
210
0.0
220
0.0
230
1.0
 70
     8
 71
     3
 72
     8
 73
     4
 74
     0
 42
0.000000001
 43
0.0000000001
 40
0.0
 40
0.0
 40
0.0
 40
0.0
 40
0.0358810580955392
 40
0.0358810580955392
 40
0.0358810580955392
 40
0.0358810580955392
 10
-26.55685069807891
 20
5.339651906365294
 30
0.0
 10
-26.5716040161305
 20
5.458317756340776
 30
0.0
 10
-26.57818375741604
 20
5.576610173916556
 30
0.0
 10
-26.57751215882158
 20
5.689600006645366
 30
0.0
  0
SPLINE
  5
120C9
330
120AA
100
AcDbEntity
  8
0
100
AcDbSpline
210
0.0
220
0.0
230
1.0
 70
     8
 71
     3
 72
    16
 73
    12
 74
     0
 42
0.000000001
 43
0.0000000001
 40
0.0356952441698204
 40
0.0356952441698204
 40
0.0356952441698204
 40
0.0356952441698204
 40
0.0396892199073866
 40
0.0396892199073866
 40
0.0793786315890578
 40
0.0793786315890578
 40
0.1190682998304105
 40
0.1190682998304105
 40
0.1406495564005882
 40
0.1406495564005882
 40
0.1622309307189279
 40
0.1622309307189279
 40
0.1622309307189279
 40
0.1622309307189279
 10
-26.57751215882147
 20
5.689600006646053
 30
0.0
 10
-26.57743738033581
 20
5.702180753503562
 30
0.0
 10
-26.57735823688452
 20
5.714686981224705
 30
0.0
 10
-26.57644512766653
 20
5.850573958997608
 30
0.0
 10
-26.57520257027864
 20
5.963571481776874
 30
0.0
 10
-26.57203145903827
 20
6.155916145860164
 30
0.0
 10
-26.57013321864667
 20
6.233424131633013
 30
0.0
 10
-26.56688505691084
 20
6.317528704917379
 30
0.0
 10
-26.56568928651586
 20
6.340106645073262
 30
0.0
 10
-26.56323464265882
 20
6.370410477157876
 30
0.0
 10
-26.56198269564049
 20
6.378050773338119
 30
0.0
 10
-26.56072720575217
 20
6.378050773338119
 30
0.0
  0
SPLINE
  5
120CA
330
120AA
100
AcDbEntity
  8
0
100
AcDbSpline
210
0.0
220
0.0
230
1.0
 70
     8
 71
     3
 72
    14
 73
    10
 74
     0
 42
0.000000001
 43
0.0000000001
 40
0.0
 40
0.0
 40
0.0
 40
0.0
 40
0.0396894828435813
 40
0.0396894828435813
 40
0.0793789643165008
 40
0.0793789643165008
 40
0.1190684429426447
 40
0.1190684429426447
 40
0.1266215275340054
 40
0.1266215275340054
 40
0.1266215275340054
 40
0.1266215275340054
 10
-29.40516018304877
 20
6.378050773338116
 30
0.0
 10
-29.40746910633501
 20
6.378050773338116
 30
0.0
 10
-29.40975595509575
 20
6.352209986535969
 30
0.0
 10
-29.41402806381106
 20
6.251755836829079
 30
0.0
 10
-29.41597248014032
 20
6.178102870759647
 30
0.0
 10
-29.41925914590754
 20
5.9922365594994
 30
0.0
 10
-29.42056997307398
 20
5.881800200087349
 30
0.0
 10
-29.42164664977108
 20
5.736912247948803
 30
0.0
 10
-29.4218035947234
 20
5.713403405296954
 30
0.0
 10
-29.42194507892894
 20
5.689599993099827
 30
0.0
  0
LINE
  5
120CB
330
120AA
100
AcDbEntity
  8
0
100
AcDbLine
 10
-29.34333251941527
 20
6.378050773338117
 30
0.0
 11
-29.40516018304876
 21
6.378050773338117
 31
0.0
  0
LINE
  5
120CC
330
120AA
100
AcDbEntity
  8
0
100
AcDbLine
 10
29.4051601830487
 20
6.378050773338132
 30
0.0
 11
29.39316370822449
 21
6.378050773338132
 31
0.0
  0
SPLINE
  5
120CD
330
120AA
100
AcDbEntity
  8
0
100
AcDbSpline
210
0.0
220
0.0
230
1.0
 70
     8
 71
     3
 72
    20
 73
    16
 74
     0
 42
0.000000001
 43
0.0000000001
 40
-0.1598489025672319
 40
-0.1598489025672319
 40
-0.1598489025672319
 40
-0.1598489025672319
 40
-0.1367479564213064
 40
-0.1367479564213064
 40
-0.1153474572880917
 40
-0.1153474572880917
 40
-0.0844356954462309
 40
-0.0844356954462309
 40
-0.0498366858531828
 40
-0.0498366858531828
 40
-0.0233359865424743
 40
-0.0233359865424743
 40
-0.0083287469209576
 40
-0.0083287469209576
 40
0.0
 40
0.0
 40
0.0
 40
0.0
 10
31.7499999999999
 20
0.000000000000007
 30
0.0
 10
31.76822676893718
 20
0.0000000000000071
 30
0.0
 10
31.78627419038319
 20
0.1170646193110103
 30
0.0
 10
31.81990530374971
 20
0.5320908661836472
 30
0.0
 10
31.83532808979571
 20
0.8128805521405652
 30
0.0
 10
31.87108798478935
 20
1.652685070441467
 30
0.0
 10
31.89015092891299
 20
2.269588512062629
 30
0.0
 10
31.92755071936164
 20
3.72162851092597
 30
0.0
 10
31.94398328264999
 20
4.513114053329775
 30
0.0
 10
31.95716245576891
 20
5.183553588471428
 30
0.0
 10
31.95968751885044
 20
5.339815195821687
 30
0.0
 10
31.96178571112917
 20
5.506130529903613
 30
0.0
 10
31.96226832224761
 20
5.558546960988111
 30
0.0
 10
31.96266152402537
 20
5.634640376046205
 30
0.0
 10
31.9627367074474
 20
5.661837510263486
 30
0.0
 10
31.9627367074474
 20
5.689600000000012
 30
0.0
  0
LINE
  5
120CE
330
120AA
100
AcDbEntity
  8
0
100
AcDbLine
 10
31.74999999999992
 20
0.0
 30
0.0
 11
26.27227002180877
 21
0.0
 31
0.0
  0
SPLINE
  5
120CF
330
120AA
100
AcDbEntity
  8
0
100
AcDbSpline
210
0.0
220
0.0
230
1.0
 70
     8
 71
     3
 72
    22
 73
    18
 74
     0
 42
0.000000001
 43
0.0000000001
 40
-1.151047167356734
 40
-1.151047167356734
 40
-1.151047167356734
 40
-1.151047167356734
 40
-1.132990630922099
 40
-1.132990630922099
 40
-1.109750141949319
 40
-1.109750141949319
 40
-1.017289431522981
 40
-1.017289431522981
 40
-0.8803209745715301
 40
-0.8803209745715301
 40
-0.8219804066584654
 40
-0.8219804066584654
 40
-0.5620159928507406
 40
-0.5620159928507406
 40
-0.2615037979130161
 40
-0.2615037979130161
 40
0.0
 40
0.0
 40
0.0
 40
0.0
 10
-31.9627367074475
 20
5.689600000000003
 30
0.0
 10
-31.9627367074475
 20
5.66964557258476
 30
0.0
 10
-31.96269790232492
 20
5.649919712874725
 30
0.0
 10
-31.9625267829669
 20
5.604814168026979
 30
0.0
 10
-31.96237268925755
 20
5.579959597575853
 30
0.0
 10
-31.96139655551882
 20
5.458478936109333
 30
0.0
 10
-31.95971173501723
 20
5.33855473414892
 30
0.0
 10
-31.95159342903537
 20
4.887016778656706
 30
0.0
 10
-31.94365738069475
 20
4.502505459089459
 30
0.0
 10
-31.9329838109665
 20
4.012353508093646
 30
0.0
 10
-31.92971926546129
 20
3.86615939598599
 30
0.0
 10
-31.91177023311273
 20
3.084210587795618
 30
0.0
 10
-31.89590810836067
 20
2.471869528919822
 30
0.0
 10
-31.8587377926581
 20
1.319738790029057
 30
0.0
 10
-31.83713925366885
 20
0.8101561828613824
 30
0.0
 10
-31.79312979990659
 20
0.1659320256982763
 30
0.0
 10
-31.77172022500701
 20
-0.0000000000000065
 30
0.0
 10
-31.75000000000582
 20
-0.000000000000007
 30
0.0
  0
LINE
  5
120D0
330
120AA
100
AcDbEntity
  8
0
100
AcDbLine
 10
-26.27227002180888
 20
0.0
 30
0.0
 11
-31.75000000000004
 21
0.0
 31
0.0
  0
CIRCLE
  5
120D1
330
120AA
100
AcDbEntity
  8
0
100
AcDbCircle
 10
0.0000000000000978
 20
33.33749999999997
 30
0.0
 40
8.724900000000001
  0
LINE
  5
120D2
330
120AA
100
AcDbEntity
  8
0
100
AcDbLine
 10
31.96273670744739
 20
5.689600000000012
 30
0.0
 11
29.39316370822448
 21
57.53560269887838
 31
0.0
  0
LINE
  5
120D3
330
120AA
100
AcDbEntity
  8
0
100
AcDbLine
 10
-29.34333251941529
 20
57.53560269887827
 30
0.0
 11
-31.96273670744751
 21
5.689600000000005
 31
0.0
  0
LINE
  5
120D4
330
120AA
100
AcDbEntity
  8
0
100
AcDbLine
 10
29.39316370822449
 20
6.378050773338131
 30
0.0
 11
24.52623999999993
 21
6.378050773338119
 31
0.0
  0
LINE
  5
120D5
330
120AA
100
AcDbEntity
  8
0
100
AcDbLine
 10
24.52623999999979
 20
57.53560269887845
 30
0.0
 11
29.39316370822448
 21
57.53560269887839
 31
0.0
  0
LINE
  5
120D6
330
120AA
100
AcDbEntity
  8
0
100
AcDbLine
 10
-29.34333251941529
 20
57.53560269887828
 30
0.0
 11
-24.52623999999986
 21
57.53560269887827
 31
0.0
  0
LINE
  5
120D7
330
120AA
100
AcDbEntity
  8
0
100
AcDbLine
 10
-24.52623999999998
 20
6.378050773338109
 30
0.0
 11
-29.34333251941527
 21
6.378050773338117
 31
0.0
  0
LINE
  5
120D8
330
120AA
100
AcDbEntity
  8
0
100
AcDbLine
 10
23.73248999999997
 20
0.0
 30
0.0
 11
-23.73249000000001
 21
0.0
 31
0.0
  0
LINE
  5
120D9
330
120AA
100
AcDbEntity
  8
0
100
AcDbLine
 10
24.52623999999977
 20
63.38522269887835
 30
0.0
 11
-24.52623999999985
 21
63.38522269887832
 31
0.0
  0
ENDBLK
  5
120AC
330
120AA
100
AcDbEntity
  8
0
100
AcDbBlockEnd
  0
BLOCK
  5
120DB
330
120DA
100
AcDbEntity
  8
0
100
AcDbBlockBegin
  2
HTT5-ISO
 70
     0
 10
0.0
 20
0.0
 30
0.0
  3
HTT5-ISO
  1

  0
LINE
  5
120DD
330
120DA
100
AcDbEntity
  8
0
100
AcDbLine
 10
0.5571215415842313
 20
-137.2545097578197
 30
0.0
 11
-3.049744004520822
 21
-139.3369345517943
 31
0.0
  0
ELLIPSE
  5
120DE
330
120DA
100
AcDbEntity
  8
0
100
AcDbEllipse
 10
1.173464751787904
 20
-137.6185426015458
 30
0.0
 11
-1.42240000000002
 21
2.463669068685998
 31
0.0
210
0.0
220
0.0
230
0.9999999999999998
 40
0.5773502691896249
 41
0.8028514559173913
 42
1.349854785020591
  0
LINE
  5
120DF
330
120DA
100
AcDbEntity
  8
0
100
AcDbLine
 10
-4.402474841222092
 20
-138.5559350390837
 30
0.0
 11
-0.8378062463546953
 21
-136.4978726662652
 31
0.0
  0
ELLIPSE
  5
120E0
330
120DA
100
AcDbEntity
  8
0
100
AcDbEllipse
 10
-35.00038712366446
 20
-158.503525719464
 30
0.0
 11
-2.844800000000027
 21
4.927338137371994
 31
0.0
210
0.0
220
0.0
230
1.0
 40
0.5773502691896258
 41
0.8028514559173807
 42
1.282857883414326
  0
LINE
  5
120E1
330
120DA
100
AcDbEntity
  8
0
100
AcDbLine
 10
35.24246278360163
 20
-160.8561107292097
 30
0.0
 11
35.24246278360163
 21
-161.9338267330808
 31
0.0
  0
LINE
  5
120E2
330
120DA
100
AcDbEntity
  8
0
100
AcDbLine
 10
-0.9313890918508826
 20
-180.4960403775758
 30
0.0
 11
-0.8731771229654894
 21
-180.4624316816697
 31
0.0
  0
LINE
  5
120E3
330
120DA
100
AcDbEntity
  8
0
100
AcDbLine
 10
-0.9313890918508738
 20
-182.8188098509989
 30
0.0
 11
-0.9313890918508826
 21
-180.4960403775758
 31
0.0
  0
LINE
  5
120E4
330
120DA
100
AcDbEntity
  8
0
100
AcDbLine
 10
35.24246278360163
 20
-161.9338267330808
 30
0.0
 11
-0.9313890918508649
 21
-182.8188098509989
 31
0.0
  0
SPLINE
  5
120E5
330
120DA
100
AcDbEntity
  8
0
100
AcDbSpline
210
0.0
220
0.0
230
1.0
 70
     8
 71
     3
 72
    16
 73
    12
 74
     0
 42
0.000000001
 43
0.0000000001
 40
-0.1969447702819867
 40
-0.1969447702819867
 40
-0.1969447702819867
 40
-0.1969447702819867
 40
-0.1738095768900161
 40
-0.1738095768900161
 40
-0.145790935774852
 40
-0.145790935774852
 40
-0.1012418803306714
 40
-0.1012418803306714
 40
-0.0538491035524422
 40
-0.0538491035524422
 40
-0.0193284650332867
 40
-0.0193284650332867
 40
-0.0193284650332867
 40
-0.0193284650332867
 10
2.988926859302927
 20
-133.0405497304029
 30
0.0
 10
2.988049781899533
 20
-132.9864974659334
 30
0.0
 10
2.981394178984049
 20
-132.9305642883043
 30
0.0
 10
2.953735837899971
 20
-132.8049791780581
 30
0.0
 10
2.930120554572877
 20
-132.7354478473934
 30
0.0
 10
2.847058792267911
 20
-132.5586388502694
 30
0.0
 10
2.775951400898917
 20
-132.4559196484773
 30
0.0
 10
2.590768175797093
 20
-132.2700423199222
 30
0.0
 10
2.478273013791376
 20
-132.1926279512187
 30
0.0
 10
2.261800056113156
 20
-132.0942317326374
 30
0.0
 10
2.162611355251313
 20
-132.0630372689677
 30
0.0
 10
2.056035947823722
 20
-132.0433589085811
 30
0.0
  0
SPLINE
  5
120E6
330
120DA
100
AcDbEntity
  8
0
100
AcDbSpline
210
0.0
220
0.0
230
1.0
 70
     8
 71
     3
 72
     8
 73
     4
 74
     0
 42
0.000000001
 43
0.0000000001
 40
0.5796661010826976
 40
0.5796661010826976
 40
0.5796661010826976
 40
0.5796661010826976
 40
0.5820991844498761
 40
0.5820991844498761
 40
0.5820991844498761
 40
0.5820991844498761
 10
2.056035947824992
 20
-132.0433589085802
 30
0.0
 10
2.060911325299441
 20
-132.0399740948416
 30
0.0
 10
2.065762803404074
 20
-132.036605049666
 30
0.0
 10
2.070590198479127
 20
-132.0332518459389
 30
0.0
  0
LINE
  5
120E7
330
120DA
100
AcDbEntity
  8
0
100
AcDbLine
 10
2.988926876640101
 20
-133.0405497211845
 30
0.0
 11
3.055507123044256
 21
-137.1437383546544
 31
0.0
  0
LINE
  5
120E8
330
120DA
100
AcDbEntity
  8
0
100
AcDbLine
 10
39.74439738025733
 20
-154.9989308805209
 30
0.0
 11
39.7524257361812
 21
-156.0079447209556
 31
0.0
  0
SPLINE
  5
120E9
330
120DA
100
AcDbEntity
  8
0
100
AcDbSpline
210
0.0
220
0.0
230
1.0
 70
     8
 71
     3
 72
    10
 73
     6
 74
     0
 42
0.000000001
 43
0.0000000001
 40
0.2555763673393015
 40
0.2555763673393015
 40
0.2555763673393015
 40
0.2555763673393015
 40
0.3279364488154201
 40
0.3279364488154201
 40
0.3534231846692945
 40
0.3534231846692945
 40
0.3534231846692945
 40
0.3534231846692945
 10
2.975658404910257
 20
-132.2228453828059
 30
0.0
 10
2.764912768284899
 20
-132.1563237001264
 30
0.0
 10
2.539752501910892
 20
-132.1055991189785
 30
0.0
 10
2.223150361705772
 20
-132.0603558548927
 30
0.0
 10
2.139869261372542
 20
-132.0507559017755
 30
0.0
 10
2.056035947823722
 20
-132.0433589085811
 30
0.0
  0
ELLIPSE
  5
120EA
330
120DA
100
AcDbEntity
  8
0
100
AcDbEllipse
 10
1.63329785016864
 20
-133.6403878308944
 30
0.0
 11
-2.798251531818521
 21
-0.0000000000001672
 31
0.0
210
0.0
220
0.0
230
1.0
 40
0.577350269189626
 41
3.924555576824827
 42
4.212060202219102
  0
LINE
  5
120EB
330
120DA
100
AcDbEntity
  8
0
100
AcDbLine
 10
3.616773130611072
 20
-137.4677854352101
 30
0.0
 11
3.055507123044256
 21
-137.1437383546544
 31
0.0
  0
LINE
  5
120EC
330
120DA
100
AcDbEntity
  8
0
100
AcDbLine
 10
3.616773130611072
 20
-137.4677854352101
 30
0.0
 11
3.616773130611061
 21
-132.5007917844525
 31
0.0
  0
ELLIPSE
  5
120ED
330
120DA
100
AcDbEntity
  8
0
100
AcDbEllipse
 10
-35.61673033386802
 20
-160.3774599354661
 30
0.0
 11
-2.924809999999689
 21
-5.065919522485718
 31
0.0
210
0.0
220
0.0
230
1.0
 40
0.5773502691896249
 41
3.926990816987002
 42
6.283185307179209
  0
LINE
  5
120EE
330
120DA
100
AcDbEntity
  8
0
100
AcDbLine
 10
-5.247913647327799
 20
-138.0678207167952
 30
0.0
 11
-35.61673033386805
 21
-155.6012652057397
 31
0.0
  0
ELLIPSE
  5
120EF
330
120DA
100
AcDbEntity
  8
0
100
AcDbEllipse
 10
0.1459041398178584
 20
-138.8235984202551
 30
0.0
 11
-2.057400000000206
 21
-3.563521331492077
 31
0.0
210
0.0
220
0.0
230
1.0
 40
0.5773502691896258
 41
1.960817361218142
 42
2.356194490192589
  0
SPLINE
  5
120F0
330
120DA
100
AcDbEntity
  8
0
100
AcDbSpline
210
0.0
220
0.0
230
1.0
 70
     8
 71
     3
 72
    16
 73
    12
 74
     0
 42
0.000000001
 43
0.0000000001
 40
0.0351753930425267
 40
0.0351753930425267
 40
0.0351753930425267
 40
0.0351753930425267
 40
0.1112442988749742
 40
0.1112442988749742
 40
0.2224299255202852
 40
0.2224299255202852
 40
0.3336155270249634
 40
0.3336155270249634
 40
0.3908647803495771
 40
0.3908647803495771
 40
0.4481146790159753
 40
0.4481146790159753
 40
0.4481146790159753
 40
0.4481146790159753
 10
-0.1444781725643862
 20
-132.3318040277556
 30
0.0
 10
0.0547141162751563
 20
-132.2463714574576
 30
0.0
 10
0.2740992885178839
 20
-132.1759663016362
 30
0.0
 10
0.850057087471927
 20
-132.0451262578307
 30
0.0
 10
1.216665361690614
 20
-132.0057887107149
 30
0.0
 10
1.957852910506843
 20
-132.0092580990599
 30
0.0
 10
2.325342524090592
 20
-132.0520337771523
 30
0.0
 10
2.846010076565805
 20
-132.1761247435053
 30
0.0
 10
3.015352346382342
 20
-132.2283640515473
 30
0.0
 10
3.333668014005524
 20
-132.3515290557172
 30
0.0
 10
3.481835355474849
 20
-132.4221433910115
 30
0.0
 10
3.616773130611061
 20
-132.5007917844525
 30
0.0
  0
LINE
  5
120F1
330
120DA
100
AcDbEntity
  8
0
100
AcDbLine
 10
1.820877454467901
 20
-12.66049407074494
 30
0.0
 11
3.616773130611061
 21
-132.5007917844525
 31
0.0
  0
LINE
  5
120F2
330
120DA
100
AcDbEntity
  8
0
100
AcDbLine
 10
-0.4065387063366322
 20
-132.5105796572797
 30
0.0
 11
-2.201708006524554
 21
-12.71875276724833
 31
0.0
  0
ELLIPSE
  5
120F3
330
120DA
100
AcDbEntity
  8
0
100
AcDbEllipse
 10
34.8312453818353
 20
-158.8491895232679
 30
0.0
 11
-2.057400000000012
 21
-3.563521331492205
 31
0.0
210
0.0
220
0.0
230
1.0
 40
0.5773502691896263
 41
0.7853981633974572
 42
1.62465869198299
  0
LINE
  5
120F4
330
120DA
100
AcDbEntity
  8
0
100
AcDbLine
 10
34.83124538183531
 20
-162.2089096544693
 30
0.0
 11
-0.9313890918507938
 21
-182.8564762947821
 31
0.0
  0
ELLIPSE
  5
120F5
330
120DA
100
AcDbEntity
  8
0
100
AcDbEllipse
 10
-0.9313890918507938
 20
-180.4030510384788
 30
0.0
 11
-1.502410000000009
 21
-2.602250453799558
 31
0.0
210
0.0
220
0.0
230
1.0
 40
0.5773502691896275
 41
3.926990816987242
 42
7.068583470577035
  0
LINE
  5
120F6
330
120DA
100
AcDbEntity
  8
0
100
AcDbLine
 10
-0.9313890918508027
 20
-177.9496257821756
 30
0.0
 11
0.4494316969958634
 21
-177.1524085280323
 31
0.0
  0
LINE
  5
120F7
330
120DA
100
AcDbEntity
  8
0
100
AcDbLine
 10
1.120223410665901
 20
-174.4423572781516
 30
0.0
 11
-0.9313890918508205
 21
-175.6268563087524
 31
0.0
  0
ELLIPSE
  5
120F8
330
120DA
100
AcDbEntity
  8
0
100
AcDbEllipse
 10
-0.9313890918507938
 20
-180.4030510384788
 30
0.0
 11
-2.924809999999714
 21
-5.065919522485704
 31
0.0
210
0.0
220
0.0
230
1.0
 40
0.5773502691896275
 41
3.926990816987004
 42
7.068583470576797
  0
LINE
  5
120F9
330
120DA
100
AcDbEntity
  8
0
100
AcDbLine
 10
-0.9313890918507938
 20
-185.1792457682053
 30
0.0
 11
34.83124538183531
 21
-164.5316791278925
 31
0.0
  0
ELLIPSE
  5
120FA
330
120DA
100
AcDbEntity
  8
0
100
AcDbEllipse
 10
34.83124538183529
 20
-158.8491895232679
 30
0.0
 11
3.479799999999656
 21
6.027190400178376
 31
0.0
210
0.0
220
0.0
230
1.0
 40
0.5773502691896284
 41
3.926990816987004
 42
5.497787143781899
  0
ELLIPSE
  5
120FB
330
120DA
100
AcDbEntity
  8
0
100
AcDbEllipse
 10
36.96390066251854
 20
-35.27309745347345
 30
0.0
 11
-5.69003334281931
 21
0.0007505717630624
 31
0.0
210
0.0
220
0.0
230
1.0
 40
0.5773502557949275
 41
2.356346806631631
 42
3.126302954096367
  0
ELLIPSE
  5
120FC
330
120DA
100
AcDbEntity
  8
0
100
AcDbEllipse
 10
45.7994332059075
 20
-38.18906443335527
 30
0.0
 11
-4.826000000000027
 21
8.358877197327451
 31
0.0
210
0.0
220
0.0
230
1.0
 40
0.5773502691896257
 41
5.944856637418201
 42
7.051130178057087
  0
SPLINE
  5
120FD
330
120DA
100
AcDbEntity
  8
0
100
AcDbSpline
210
0.0
220
0.0
230
1.0
 70
     8
 71
     3
 72
     8
 73
     4
 74
     0
 42
0.000000001
 43
0.0000000001
 40
-0.1208672268700925
 40
-0.1208672268700925
 40
-0.1208672268700925
 40
-0.1208672268700925
 40
0.0
 40
0.0
 40
0.0
 40
0.0
 10
42.72318001595151
 20
-30.44169895268332
 30
0.0
 10
42.81260777754157
 20
-30.07303947141416
 30
0.0
 10
42.85591676399535
 20
-29.71220021381763
 30
0.0
 10
42.8488180467258
 20
-29.37924498216279
 30
0.0
  0
ELLIPSE
  5
120FE
330
120DA
100
AcDbEntity
  8
0
100
AcDbEllipse
 10
36.96390066251854
 20
-35.27309745347345
 30
0.0
 11
2.845016671409655
 21
-0.0003752858813613
 31
0.0
210
0.0
220
0.0
230
1.0
 40
0.5773502557949274
 41
0.3572397492295934
 42
0.7855504798364956
  0
SPLINE
  5
120FF
330
120DA
100
AcDbEntity
  8
0
100
AcDbSpline
210
0.0
220
0.0
230
1.0
 70
     8
 71
     3
 72
    20
 73
    16
 74
     0
 42
0.000000001
 43
0.0000000001
 40
-0.1598489025672319
 40
-0.1598489025672319
 40
-0.1598489025672319
 40
-0.1598489025672319
 40
-0.1367479564213064
 40
-0.1367479564213064
 40
-0.1153474572880917
 40
-0.1153474572880917
 40
-0.0844356954462309
 40
-0.0844356954462309
 40
-0.0498366858531828
 40
-0.0498366858531828
 40
-0.0233359865424743
 40
-0.0233359865424743
 40
-0.0083287469209576
 40
-0.0083287469209576
 40
0.0
 40
0.0
 40
0.0
 40
0.0
 10
44.8603954178453
 20
-28.21786024545119
 30
0.0
 10
44.87328368975996
 20
-28.82236629887405
 30
0.0
 10
44.80326795769554
 20
-29.46871557328523
 30
0.0
 10
44.53358087248182
 20
-30.75355336383577
 30
0.0
 10
44.34593813805236
 20
-31.37969488611349
 30
0.0
 10
43.7773927325352
 20
-32.90855050493338
 30
0.0
 10
43.35465566268677
 20
-33.79263878398042
 30
0.0
 10
42.35435397837759
 20
-35.6258269969819
 30
0.0
 10
41.80630876106621
 20
-36.49394933734916
 30
0.0
 10
41.34155550207482
 20
-37.20475344309003
 30
0.0
 10
41.23284734910621
 20
-37.3522928085378
 30
0.0
 10
41.1167282945501
 20
-37.48977906313462
 30
0.0
 10
41.08000553827918
 20
-37.52718418336059
 30
0.0
 10
41.02647740413138
 20
-37.57129005616818
 30
0.0
 10
41.00729928880506
 20
-37.58488676085303
 30
0.0
 10
40.98766824404974
 20
-37.596220749827
 30
0.0
  0
SPLINE
  5
12100
330
120DA
100
AcDbEntity
  8
0
100
AcDbSpline
210
0.0
220
0.0
230
1.0
 70
     8
 71
     3
 72
     8
 73
     4
 74
     0
 42
0.000000001
 43
0.0000000001
 40
0.1900230410225752
 40
0.1900230410225752
 40
0.1900230410225752
 40
0.1900230410225752
 40
0.2940671258934946
 40
0.2940671258934946
 40
0.2940671258934946
 40
0.2940671258934946
 10
42.68127084969319
 20
-35.02044600272422
 30
0.0
 10
42.67128477426858
 20
-35.07481252439884
 30
0.0
 10
42.65716892990497
 20
-35.17730062378757
 30
0.0
 10
42.65326229935353
 20
-35.32407481761155
 30
0.0
  0
LINE
  5
12101
330
120DA
100
AcDbEntity
  8
0
100
AcDbLine
 10
39.19105725391467
 20
-155.4097037601331
 30
0.0
 11
40.98766824404974
 21
-37.596220749827
 31
0.0
  0
SPLINE
  5
12102
330
120DA
100
AcDbEntity
  8
0
100
AcDbSpline
210
0.0
220
0.0
230
1.0
 70
     8
 71
     3
 72
    12
 73
     8
 74
     0
 42
0.000000001
 43
0.0000000001
 40
0.0339233798659583
 40
0.0339233798659583
 40
0.0339233798659583
 40
0.0339233798659583
 40
0.1109419577493421
 40
0.1109419577493421
 40
0.3332420225662758
 40
0.3332420225662758
 40
0.4429625773600371
 40
0.4429625773600371
 40
0.4429625773600371
 40
0.4429625773600371
 10
39.42416657906436
 20
-155.2232731993087
 30
0.0
 10
39.59435320541806
 20
-155.1146161876094
 30
0.0
 10
39.75146421973626
 20
-154.9991380964545
 30
0.0
 10
40.30688660827862
 20
-154.5269268547562
 30
0.0
 10
40.59523692547635
 20
-154.1310287512069
 30
0.0
 10
40.81621661681658
 20
-153.5062609037511
 30
0.0
 10
40.85435084759888
 20
-153.2962889715665
 30
0.0
 10
40.85756071252443
 20
-153.0857967611174
 30
0.0
  0
LINE
  5
12103
330
120DA
100
AcDbEntity
  8
0
100
AcDbLine
 10
38.93856280440246
 20
-36.53244361301175
 30
0.0
 11
38.97547803363803
 21
-34.11171271676187
 31
0.0
  0
LINE
  5
12104
330
120DA
100
AcDbEntity
  8
0
100
AcDbLine
 10
42.65352816464993
 20
-35.31467359081864
 30
0.0
 11
40.85756314552489
 21
-153.0857967941363
 31
0.0
  0
SPLINE
  5
12105
330
120DA
100
AcDbEntity
  8
0
100
AcDbSpline
210
0.0
220
0.0
230
1.0
 70
     8
 71
     3
 72
     8
 73
     4
 74
     0
 42
0.000000001
 43
0.0000000001
 40
0.0
 40
0.0
 40
0.0
 40
0.0
 40
0.0346379770188381
 40
0.0346379770188381
 40
0.0346379770188381
 40
0.0346379770188381
 10
39.42416657906436
 20
-155.2232731993087
 30
0.0
 10
39.34755061537298
 20
-155.2721892736298
 30
0.0
 10
39.26861092863923
 20
-155.3351431179148
 30
0.0
 10
39.19105725391643
 20
-155.4097037601314
 30
0.0
  0
SPLINE
  5
12106
330
120DA
100
AcDbEntity
  8
0
100
AcDbSpline
210
0.0
220
0.0
230
1.0
 70
     8
 71
     3
 72
    16
 73
    12
 74
     0
 42
0.000000001
 43
0.0000000001
 40
0.0345942891639972
 40
0.0345942891639972
 40
0.0345942891639972
 40
0.0345942891639972
 40
0.0396894627316788
 40
0.0396894627316788
 40
0.0793789376486438
 40
0.0793789376486438
 40
0.1190684283984565
 40
0.1190684283984565
 40
0.1400986231318568
 40
0.1400986231318568
 40
0.1611288249781504
 40
0.1611288249781504
 40
0.1611288249781504
 40
0.1611288249781504
 10
39.19105725391487
 20
-155.409703760133
 30
0.0
 10
39.17964573075174
 20
-155.4206748778622
 30
0.0
 10
39.1683156665648
 20
-155.4319248879689
 30
0.0
 10
39.06954222665572
 20
-155.5331829309299
 30
0.0
 10
38.98929633135921
 20
-155.6375986751376
 30
0.0
 10
38.85241818219245
 20
-155.8640314762674
 30
0.0
 10
38.79709456822919
 20
-155.9838837178136
 30
0.0
 10
38.73728568829105
 20
-156.1670730819697
 30
0.0
 10
38.72128798424488
 20
-156.2299981149344
 30
0.0
 10
38.69923830744604
 20
-156.3527908259187
 30
0.0
 10
38.69324542233073
 20
-156.4123294677775
 30
0.0
 10
38.6923803299034
 20
-156.4690582491047
 30
0.0
  0
SPLINE
  5
12107
330
120DA
100
AcDbEntity
  8
0
100
AcDbSpline
210
0.0
220
0.0
230
1.0
 70
     8
 71
     3
 72
     8
 73
     4
 74
     0
 42
0.000000001
 43
0.0000000001
 40
0.0
 40
0.0
 40
0.0
 40
0.0
 40
0.0358810580955392
 40
0.0358810580955392
 40
0.0358810580955392
 40
0.0358810580955392
 10
-0.1444781725643773
 20
-132.3318040277556
 30
0.0
 10
-0.2388197710165851
 20
-132.3722666645814
 30
0.0
 10
-0.3271177213288334
 20
-132.4327621783277
 30
0.0
 10
-0.4065387063361304
 20
-132.510579657279
 30
0.0
  0
SPLINE
  5
12108
330
120DA
100
AcDbEntity
  8
0
100
AcDbSpline
210
0.0
220
0.0
230
1.0
 70
     8
 71
     3
 72
    16
 73
    12
 74
     0
 42
0.000000001
 43
0.0000000001
 40
0.0356952441698204
 40
0.0356952441698204
 40
0.0356952441698204
 40
0.0356952441698204
 40
0.0396892199073866
 40
0.0396892199073866
 40
0.0793786315890578
 40
0.0793786315890578
 40
0.1190682998304105
 40
0.1190682998304105
 40
0.1406495564005882
 40
0.1406495564005882
 40
0.1622309307189279
 40
0.1622309307189279
 40
0.1622309307189279
 40
0.1622309307189279
 10
-0.4065387063365389
 20
-132.5105796572796
 30
0.0
 10
-0.415381761377569
 20
-132.5192441714117
 30
0.0
 10
-0.424169036935167
 20
-132.528084225472
 30
0.0
 10
-0.5196099746733252
 20
-132.6266451897825
 30
0.0
 10
-0.5986326685328303
 20
-132.7314066859581
 30
0.0
 10
-0.7323985705692105
 20
-132.9595609207513
 30
0.0
 10
-0.785862734252083
 20
-133.0807724773385
 30
0.0
 10
-0.8430368511604635
 20
-133.2683735313158
 30
0.0
 10
-0.8581563283948812
 20
-133.3340137288791
 30
0.0
 10
-0.8778486782411398
 20
-133.4622083382424
 30
0.0
 10
-0.8823659232541158
 20
-133.5244009793566
 30
0.0
 10
-0.8814781578403696
 20
-133.5836416540219
 30
0.0
  0
LINE
  5
12109
330
120DA
100
AcDbEntity
  8
0
100
AcDbLine
 10
-0.881478157866411
 20
-133.5836416540072
 30
0.0
 11
-0.8378062463546953
 21
-136.4978726662652
 31
0.0
  0
LINE
  5
1210A
330
120DA
100
AcDbEntity
  8
0
100
AcDbLine
 10
38.6923803299034
 20
-156.4690582491047
 30
0.0
 11
38.68389754120486
 21
-157.0253205049305
 31
0.0
  0
LINE
  5
1210B
330
120DA
100
AcDbEntity
  8
0
100
AcDbLine
 10
-3.055871046516744
 20
-181.5922396225841
 30
0.0
 11
-0.9313890918508738
 21
-182.8188098509989
 31
0.0
  0
LINE
  5
1210C
330
120DA
100
AcDbEntity
  8
0
100
AcDbLine
 10
-0.9313890918508826
 20
-180.4960403775758
 30
0.0
 11
-2.473524988232989
 21
-179.6056878026726
 31
0.0
  0
LINE
  5
1210D
330
120DA
100
AcDbEntity
  8
0
100
AcDbLine
 10
-1.512496330532733
 20
-180.1523510314927
 30
0.0
 11
-2.470070802493036
 21
-179.5994951523373
 31
0.0
  0
LINE
  5
1210E
330
120DA
100
AcDbEntity
  8
0
100
AcDbLine
 10
0.5571215415842313
 20
-137.2545097578197
 30
0.0
 11
9.84721563530182
 21
-142.6181480836245
 31
0.0
  0
LINE
  5
1210F
330
120DA
100
AcDbEntity
  8
0
100
AcDbLine
 10
-5.247913647327799
 20
-138.0678207167952
 30
0.0
 11
8.861217050464201
 21
-146.213731123197
 31
0.0
  0
ELLIPSE
  5
12110
330
120DA
100
AcDbEntity
  8
0
100
AcDbEllipse
 10
22.40975511517246
 20
-68.72158615181702
 30
0.0
 11
1.1747500000001
 21
-2.034726686191433
 31
0.0
210
0.0
220
0.0
230
1.0
 40
0.5773502691896254
 41
4.169408564423692
 42
5.255369396345453
  0
ELLIPSE
  5
12111
330
120DA
100
AcDbEntity
  8
0
100
AcDbEllipse
 10
20.39817774405297
 20
-69.8829708885286
 30
0.0
 11
1.174749999999999
 21
-2.03472668619154
 31
0.0
210
0.0
220
0.0
230
1.0
 40
0.5773502691896255
 41
0.0
 42
6.283185307179586
  0
ELLIPSE
  5
12112
330
120DA
100
AcDbEntity
  8
0
100
AcDbEllipse
 10
22.40975511517245
 20
-50.57494964069831
 30
0.0
 11
1.1747500000001
 21
-2.034726686191433
 31
0.0
210
0.0
220
0.0
230
1.0
 40
0.5773502691896254
 41
4.169408564423692
 42
5.255369396345453
  0
ELLIPSE
  5
12113
330
120DA
100
AcDbEntity
  8
0
100
AcDbEllipse
 10
20.39817774405297
 20
-51.73633437740988
 30
0.0
 11
1.174749999999999
 21
-2.03472668619154
 31
0.0
210
0.0
220
0.0
230
1.0
 40
0.5773502691896255
 41
0.0
 42
6.283185307179586
  0
ELLIPSE
  5
12114
330
120DA
100
AcDbEntity
  8
0
100
AcDbEllipse
 10
11.18084286138758
 20
-25.9452976171502
 30
0.0
 11
1.174750000000099
 21
-2.034726686191433
 31
0.0
210
0.0
220
0.0
230
0.9999999999999998
 40
0.5773502691896255
 41
4.169408564423694
 42
5.255369396345459
  0
ELLIPSE
  5
12115
330
120DA
100
AcDbEntity
  8
0
100
AcDbEllipse
 10
9.169265490268099
 20
-27.10668235386178
 30
0.0
 11
1.174749999999999
 21
-2.03472668619154
 31
0.0
210
0.0
220
0.0
230
1.0
 40
0.5773502691896255
 41
0.0
 42
6.283185307179586
  0
ELLIPSE
  5
12116
330
120DA
100
AcDbEntity
  8
0
100
AcDbEllipse
 10
28.01882308839224
 20
-35.66671003382094
 30
0.0
 11
1.1747500000001
 21
-2.034726686191433
 31
0.0
210
0.0
220
0.0
230
1.0
 40
0.5773502691896257
 41
4.169408564423694
 42
5.255369396345459
  0
ELLIPSE
  5
12117
330
120DA
100
AcDbEntity
  8
0
100
AcDbEllipse
 10
26.00724571727276
 20
-36.82809477053253
 30
0.0
 11
1.174749999999999
 21
-2.03472668619154
 31
0.0
210
0.0
220
0.0
230
1.0
 40
0.5773502691896255
 41
0.0
 42
6.283185307179586
  0
ELLIPSE
  5
12118
330
120DA
100
AcDbEntity
  8
0
100
AcDbEllipse
 10
33.63507526650888
 20
-20.76261822957468
 30
0.0
 11
1.174750000000099
 21
-2.034726686191433
 31
0.0
210
0.0
220
0.0
230
0.9999999999999998
 40
0.5773502691896255
 41
4.169408564423696
 42
5.255369396345459
  0
ELLIPSE
  5
12119
330
120DA
100
AcDbEntity
  8
0
100
AcDbEllipse
 10
31.6234978953894
 20
-21.92400296628627
 30
0.0
 11
1.174749999999999
 21
-2.03472668619154
 31
0.0
210
0.0
220
0.0
230
1.0
 40
0.5773502691896255
 41
0.0
 42
6.283185307179586
  0
ELLIPSE
  5
1211A
330
120DA
100
AcDbEntity
  8
0
100
AcDbEllipse
 10
16.79709503950422
 20
-11.04120581290393
 30
0.0
 11
1.1747500000001
 21
-2.034726686191433
 31
0.0
210
0.0
220
0.0
230
1.0
 40
0.5773502691896257
 41
4.169408564423694
 42
5.255369396345458
  0
ELLIPSE
  5
1211B
330
120DA
100
AcDbEntity
  8
0
100
AcDbEllipse
 10
14.78551766838474
 20
-12.20259054961554
 30
0.0
 11
1.174749999999999
 21
-2.03472668619154
 31
0.0
210
0.0
220
0.0
230
1.0
 40
0.5773502691896255
 41
0.0
 42
6.283185307179586
  0
ELLIPSE
  5
1211C
330
120DA
100
AcDbEntity
  8
0
100
AcDbEllipse
 10
6.694306903301421
 20
12.93827814821725
 30
0.0
 11
1.174750000000101
 21
-2.034726686191436
 31
0.0
210
0.0
220
0.0
230
1.0
 40
0.5773502691896254
 41
4.169408564423694
 42
5.255369396345459
  0
ELLIPSE
  5
1211D
330
120DA
100
AcDbEntity
  8
0
100
AcDbEllipse
 10
4.682729532181937
 20
11.77689341150564
 30
0.0
 11
1.174749999999999
 21
-2.03472668619154
 31
0.0
210
0.0
220
0.0
230
1.0
 40
0.5773502691896255
 41
0.0
 42
6.283185307179586
  0
ELLIPSE
  5
1211E
330
120DA
100
AcDbEntity
  8
0
100
AcDbEllipse
 10
23.53228713030607
 20
3.216865731546487
 30
0.0
 11
1.1747500000001
 21
-2.034726686191433
 31
0.0
210
0.0
220
0.0
230
1.0
 40
0.5773502691896254
 41
4.169408564423694
 42
5.255369396345459
  0
ELLIPSE
  5
1211F
330
120DA
100
AcDbEntity
  8
0
100
AcDbEllipse
 10
21.52070975918659
 20
2.055480994834884
 30
0.0
 11
1.174749999999999
 21
-2.03472668619154
 31
0.0
210
0.0
220
0.0
230
1.0
 40
0.5773502691896255
 41
0.0
 42
6.283185307179586
  0
ELLIPSE
  5
12120
330
120DA
100
AcDbEntity
  8
0
100
AcDbEllipse
 10
33.63507526650887
 20
15.53065479266273
 30
0.0
 11
1.1747500000001
 21
-2.034726686191433
 31
0.0
210
0.0
220
0.0
230
1.0
 40
0.5773502691896257
 41
4.169408564423696
 42
5.255369396345456
  0
ELLIPSE
  5
12121
330
120DA
100
AcDbEntity
  8
0
100
AcDbEllipse
 10
31.62349789538938
 20
14.36927005595116
 30
0.0
 11
1.174749999999999
 21
-2.03472668619154
 31
0.0
210
0.0
220
0.0
230
1.0
 40
0.5773502691896255
 41
0.0
 42
6.283185307179586
  0
ELLIPSE
  5
12122
330
120DA
100
AcDbEntity
  8
0
100
AcDbEllipse
 10
16.79709503950421
 20
25.25206720933347
 30
0.0
 11
1.1747500000001
 21
-2.034726686191433
 31
0.0
210
0.0
220
0.0
230
1.0
 40
0.5773502691896257
 41
4.169408564423692
 42
5.255369396345458
  0
ELLIPSE
  5
12123
330
120DA
100
AcDbEntity
  8
0
100
AcDbEllipse
 10
14.78551766838473
 20
24.09068247262191
 30
0.0
 11
1.174749999999999
 21
-2.03472668619154
 31
0.0
210
0.0
220
0.0
230
1.0
 40
0.5773502691896255
 41
0.0
 42
6.283185307179586
  0
ELLIPSE
  5
12124
330
120DA
100
AcDbEntity
  8
0
100
AcDbEllipse
 10
28.03139544696171
 20
36.91257735604953
 30
0.0
 11
1.1747500000001
 21
-2.034726686191433
 31
0.0
210
0.0
220
0.0
230
1.0
 40
0.5773502691896257
 41
4.169408564423694
 42
5.255369396345459
  0
ELLIPSE
  5
12125
330
120DA
100
AcDbEntity
  8
0
100
AcDbEllipse
 10
26.01981807584223
 20
35.75119261933789
 30
0.0
 11
1.174749999999999
 21
-2.03472668619154
 31
0.0
210
0.0
220
0.0
230
1.0
 40
0.5773502691896255
 41
0.0
 42
6.283185307179586
  0
ELLIPSE
  5
12126
330
120DA
100
AcDbEntity
  8
0
100
AcDbEllipse
 10
11.18443496383598
 20
46.63917452600916
 30
0.0
 11
1.1747500000001
 21
-2.034726686191433
 31
0.0
210
0.0
220
0.0
230
1.0
 40
0.5773502691896257
 41
4.169408564423694
 42
5.255369396345455
  0
ELLIPSE
  5
12127
330
120DA
100
AcDbEntity
  8
0
100
AcDbEllipse
 10
9.172857592716503
 20
45.47778978929752
 30
0.0
 11
1.174749999999999
 21
-2.03472668619154
 31
0.0
210
0.0
220
0.0
230
1.0
 40
0.5773502691896255
 41
0.0
 42
6.283185307179586
  0
ELLIPSE
  5
12128
330
120DA
100
AcDbEntity
  8
0
100
AcDbEllipse
 10
33.65303577875099
 20
51.81355830832238
 30
0.0
 11
1.174750000000099
 21
-2.034726686191433
 31
0.0
210
0.0
220
0.0
230
0.9999999999999998
 40
0.5773502691896255
 41
4.169408564423688
 42
5.255369396345459
  0
ELLIPSE
  5
12129
330
120DA
100
AcDbEntity
  8
0
100
AcDbEllipse
 10
31.64145840763151
 20
50.65217357161081
 30
0.0
 11
1.174749999999999
 21
-2.03472668619154
 31
0.0
210
0.0
220
0.0
230
1.0
 40
0.5773502691896255
 41
0.0
 42
6.283185307179586
  0
ELLIPSE
  5
1212A
330
120DA
100
AcDbEntity
  8
0
100
AcDbEllipse
 10
16.80607529562526
 20
61.54015547828201
 30
0.0
 11
1.1747500000001
 21
-2.034726686191433
 31
0.0
210
0.0
220
0.0
230
1.0
 40
0.5773502691896257
 41
4.169408564423694
 42
5.255369396345455
  0
ELLIPSE
  5
1212B
330
120DA
100
AcDbEntity
  8
0
100
AcDbEllipse
 10
14.79449792450578
 20
60.37877074157044
 30
0.0
 11
1.174749999999999
 21
-2.03472668619154
 31
0.0
210
0.0
220
0.0
230
1.0
 40
0.5773502691896255
 41
0.0
 42
6.283185307179586
  0
ELLIPSE
  5
1212C
330
120DA
100
AcDbEntity
  8
0
100
AcDbEllipse
 10
28.0313954469617
 20
73.20585037828696
 30
0.0
 11
1.1747500000001
 21
-2.034726686191433
 31
0.0
210
0.0
220
0.0
230
1.0
 40
0.5773502691896257
 41
4.169408564423692
 42
5.255369396345454
  0
ELLIPSE
  5
1212D
330
120DA
100
AcDbEntity
  8
0
100
AcDbEllipse
 10
26.01981807584221
 20
72.04446564157533
 30
0.0
 11
1.174749999999999
 21
-2.03472668619154
 31
0.0
210
0.0
220
0.0
230
1.0
 40
0.5773502691896255
 41
0.0
 42
6.283185307179586
  0
ELLIPSE
  5
1212E
330
120DA
100
AcDbEntity
  8
0
100
AcDbEllipse
 10
6.694306903301406
 20
85.5248241926921
 30
0.0
 11
1.17475000000011
 21
-2.03472668619145
 31
0.0
210
0.0
220
0.0
230
1.0
 40
0.5773502691896255
 41
4.169408564423717
 42
5.255369396345462
  0
ELLIPSE
  5
1212F
330
120DA
100
AcDbEntity
  8
0
100
AcDbEllipse
 10
4.682729532181914
 20
84.36343945598052
 30
0.0
 11
1.174749999999999
 21
-2.03472668619154
 31
0.0
210
0.0
220
0.0
230
1.0
 40
0.5773502691896255
 41
0.0
 42
6.283185307179586
  0
ELLIPSE
  5
12130
330
120DA
100
AcDbEntity
  8
0
100
AcDbEllipse
 10
38.14316383928555
 20
85.51445468611436
 30
0.0
 11
1.174750000000095
 21
-2.034726686191425
 31
0.0
210
0.0
220
0.0
230
1.0
 40
0.5773502691896254
 41
4.169408564423688
 42
5.255369396345455
  0
ELLIPSE
  5
12131
330
120DA
100
AcDbEntity
  8
0
100
AcDbEllipse
 10
36.13158646816607
 20
84.35306994940276
 30
0.0
 11
1.174749999999999
 21
-2.03472668619154
 31
0.0
210
0.0
220
0.0
230
1.0
 40
0.5773502691896255
 41
0.0
 42
6.283185307179586
  0
ELLIPSE
  5
12132
330
120DA
100
AcDbEntity
  8
0
100
AcDbEllipse
 10
16.80607529562525
 20
97.83342850051955
 30
0.0
 11
1.1747500000001
 21
-2.034726686191433
 31
0.0
210
0.0
220
0.0
230
1.0
 40
0.5773502691896257
 41
4.169408564423688
 42
5.255369396345457
  0
ELLIPSE
  5
12133
330
120DA
100
AcDbEntity
  8
0
100
AcDbEllipse
 10
14.79449792450577
 20
96.67204376380793
 30
0.0
 11
1.174749999999999
 21
-2.03472668619154
 31
0.0
210
0.0
220
0.0
230
1.0
 40
0.5773502691896255
 41
0.0
 42
6.283185307179586
  0
ELLIPSE
  5
12134
330
120DA
100
AcDbEntity
  8
0
100
AcDbEllipse
 10
30.27645947722911
 20
108.2029350783017
 30
0.0
 11
1.174750000000216
 21
-2.034726686191635
 31
0.0
210
0.0
220
0.0
230
1.0
 40
0.5773502691896254
 41
4.169408564423727
 42
5.255369396345404
  0
ELLIPSE
  5
12135
330
120DA
100
AcDbEntity
  8
0
100
AcDbEllipse
 10
28.26488210610949
 20
107.04155034159
 30
0.0
 11
1.174749999999999
 21
-2.03472668619154
 31
0.0
210
0.0
220
0.0
230
1.0
 40
0.5773502691896255
 41
0.0
 42
6.283185307179586
  0
ELLIPSE
  5
12136
330
120DA
100
AcDbEntity
  8
0
100
AcDbEllipse
 10
8.93937093356881
 20
120.5219088927069
 30
0.0
 11
1.174750000000218
 21
-2.034726686191637
 31
0.0
210
0.0
220
0.0
230
1.0
 40
0.5773502691896258
 41
4.169408564423727
 42
5.255369396345405
  0
ELLIPSE
  5
12137
330
120DA
100
AcDbEntity
  8
0
100
AcDbEllipse
 10
6.927793562449188
 20
119.3605241559952
 30
0.0
 11
1.174749999999999
 21
-2.03472668619154
 31
0.0
210
0.0
220
0.0
230
1.0
 40
0.5773502691896255
 41
0.0
 42
6.283185307179586
  0
ELLIPSE
  5
12138
330
120DA
100
AcDbEntity
  8
0
100
AcDbEllipse
 10
35.88911955289732
 20
123.4761813167169
 30
0.0
 11
1.174750000000213
 21
-2.034726686191629
 31
0.0
210
0.0
220
0.0
230
1.0
 40
0.5773502691896258
 41
4.169408564423727
 42
5.255369396345407
  0
ELLIPSE
  5
12139
330
120DA
100
AcDbEntity
  8
0
100
AcDbEllipse
 10
33.8775421817777
 20
122.3147965800053
 30
0.0
 11
1.174749999999999
 21
-2.03472668619154
 31
0.0
210
0.0
220
0.0
230
1.0
 40
0.5773502691896255
 41
0.0
 42
6.283185307179586
  0
ELLIPSE
  5
1213A
330
120DA
100
AcDbEntity
  8
0
100
AcDbEllipse
 10
14.55203100923702
 20
135.7951551311221
 30
0.0
 11
1.174750000000213
 21
-2.034726686191629
 31
0.0
210
0.0
220
0.0
230
1.0
 40
0.5773502691896258
 41
4.169408564423727
 42
5.255369396345407
  0
ELLIPSE
  5
1213B
330
120DA
100
AcDbEntity
  8
0
100
AcDbEllipse
 10
12.5404536381174
 20
134.6337703944104
 30
0.0
 11
1.174749999999999
 21
-2.03472668619154
 31
0.0
210
0.0
220
0.0
230
1.0
 40
0.5773502691896255
 41
0.0
 42
6.283185307179586
  0
ELLIPSE
  5
1213C
330
120DA
100
AcDbEntity
  8
0
100
AcDbEllipse
 10
28.02780334451338
 20
145.7944703240774
 30
0.0
 11
1.174750000000216
 21
-2.034726686191633
 31
0.0
210
0.0
220
0.0
230
1.0
 40
0.5773502691896257
 41
4.169408564423727
 42
5.255369396345407
  0
ELLIPSE
  5
1213D
330
120DA
100
AcDbEntity
  8
0
100
AcDbEllipse
 10
26.01622597339376
 20
144.6330855873658
 30
0.0
 11
1.174749999999999
 21
-2.03472668619154
 31
0.0
210
0.0
220
0.0
230
1.0
 40
0.5773502691896255
 41
0.0
 42
6.283185307179586
  0
ELLIPSE
  5
1213E
330
120DA
100
AcDbEntity
  8
0
100
AcDbEllipse
 10
6.690714800853079
 20
158.1134441384826
 30
0.0
 11
1.174750000000218
 21
-2.034726686191637
 31
0.0
210
0.0
220
0.0
230
1.0
 40
0.5773502691896258
 41
4.169408564423727
 42
5.255369396345405
  0
ELLIPSE
  5
1213F
330
120DA
100
AcDbEntity
  8
0
100
AcDbEllipse
 10
4.679137429733454
 20
156.9520594017709
 30
0.0
 11
1.174749999999999
 21
-2.03472668619154
 31
0.0
210
0.0
220
0.0
230
1.0
 40
0.5773502691896255
 41
0.0
 42
6.283185307179586
  0
ELLIPSE
  5
12140
330
120DA
100
AcDbEntity
  8
0
100
AcDbEllipse
 10
38.1341835831646
 20
158.1061854838781
 30
0.0
 11
1.174750000000216
 21
-2.034726686191633
 31
0.0
210
0.0
220
0.0
230
1.0
 40
0.5773502691896257
 41
4.169408564423727
 42
5.255369396345407
  0
ELLIPSE
  5
12141
330
120DA
100
AcDbEntity
  8
0
100
AcDbEllipse
 10
36.12260621204498
 20
156.9448007471665
 30
0.0
 11
1.174749999999999
 21
-2.03472668619154
 31
0.0
210
0.0
220
0.0
230
1.0
 40
0.5773502691896255
 41
0.0
 42
6.283185307179586
  0
ELLIPSE
  5
12142
330
120DA
100
AcDbEntity
  8
0
100
AcDbEllipse
 10
16.79709503950429
 20
170.4251592982833
 30
0.0
 11
1.174750000000214
 21
-2.03472668619163
 31
0.0
210
0.0
220
0.0
230
1.0
 40
0.5773502691896257
 41
4.169408564423736
 42
5.255369396345404
  0
ELLIPSE
  5
12143
330
120DA
100
AcDbEntity
  8
0
100
AcDbEllipse
 10
14.78551766838467
 20
169.2637745615716
 30
0.0
 11
1.174749999999999
 21
-2.03472668619154
 31
0.0
210
0.0
220
0.0
230
1.0
 40
0.5773502691896255
 41
0.0
 42
6.283185307179586
  0
LINE
  5
12144
330
120DA
100
AcDbEntity
  8
0
100
AcDbLine
 10
44.86039541784527
 20
154.8708994316102
 30
0.0
 11
36.44140530434294
 21
169.4530180566163
 31
0.0
  0
LINE
  5
12145
330
120DA
100
AcDbEntity
  8
0
100
AcDbLine
 10
36.44140530434294
 20
169.4530180566163
 30
0.0
 11
34.42982793322345
 21
168.2916333199047
 31
0.0
  0
LINE
  5
12146
330
120DA
100
AcDbEntity
  8
0
100
AcDbLine
 10
34.42982793322345
 20
168.2916333199047
 30
0.0
 11
42.84881804672578
 21
153.7095146948986
 31
0.0
  0
LINE
  5
12147
330
120DA
100
AcDbEntity
  8
0
100
AcDbLine
 10
42.84881804672578
 20
153.7095146948986
 30
0.0
 11
44.86039541784527
 21
154.8708994316102
 31
0.0
  0
LINE
  5
12148
330
120DA
100
AcDbEntity
  8
0
100
AcDbLine
 10
-2.052462558619967
 20
179.6332811393539
 30
0.0
 11
6.366527554882357
 21
184.4939873476893
 31
0.0
  0
LINE
  5
12149
330
120DA
100
AcDbEntity
  8
0
100
AcDbLine
 10
6.366527554882357
 20
184.4939873476893
 30
0.0
 11
8.378104926001846
 21
185.6553720844009
 31
0.0
  0
LINE
  5
1214A
330
120DA
100
AcDbEntity
  8
0
100
AcDbLine
 10
42.84881804672581
 20
-29.37924498216276
 30
0.0
 11
42.84881804672578
 21
153.7095146948986
 31
0.0
  0
LINE
  5
1214B
330
120DA
100
AcDbEntity
  8
0
100
AcDbLine
 10
44.8603954178453
 20
-28.21786024545115
 30
0.0
 11
44.86039541784527
 21
154.8708994316102
 31
0.0
  0
LINE
  5
1214C
330
120DA
100
AcDbEntity
  8
0
100
AcDbLine
 10
34.42982793322345
 20
168.2916333199047
 30
0.0
 11
6.366527554882357
 21
184.4939873476893
 31
0.0
  0
LINE
  5
1214D
330
120DA
100
AcDbEntity
  8
0
100
AcDbLine
 10
-2.052462558619967
 20
179.6332811393539
 30
0.0
 11
-2.0524625586199
 21
-3.455478537707463
 31
0.0
  0
LINE
  5
1214E
330
120DA
100
AcDbEntity
  8
0
100
AcDbLine
 10
36.44140530434294
 20
169.4530180566163
 30
0.0
 11
8.378104926001842
 21
185.6553720844009
 31
0.0
  0
LINE
  5
1214F
330
120DA
100
AcDbEntity
  8
0
100
AcDbLine
 10
42.84881804672581
 20
-29.37924498216276
 30
0.0
 11
44.8603954178453
 21
-28.21786024545115
 31
0.0
  0
ELLIPSE
  5
12150
330
120DA
100
AcDbEntity
  8
0
100
AcDbEllipse
 10
-5.00307771780152
 20
-8.858221076042909
 30
0.0
 11
4.825999999999979
 21
-8.358877197327382
 31
0.0
210
0.0
220
0.0
230
1.0
 40
0.5773502691896255
 41
0.8028514559173922
 42
1.90912499655629
  0
SPLINE
  5
12151
330
120DA
100
AcDbEntity
  8
0
100
AcDbSpline
210
0.0
220
0.0
230
1.0
 70
     8
 71
     3
 72
    10
 73
     6
 74
     0
 42
0.000000001
 43
0.0000000001
 40
-0.4780248249070636
 40
-0.4780248249070636
 40
-0.4780248249070636
 40
-0.4780248249070636
 40
-0.3962814415815732
 40
-0.3962814415815732
 40
-0.3577207361501183
 40
-0.3577207361501183
 40
-0.3577207361501183
 40
-0.3577207361501183
 10
-2.052462558619851
 20
-3.455478537705385
 30
0.0
 10
-2.057282100635591
 20
-3.675967169522831
 30
0.0
 10
-2.085305196644187
 20
-3.909442803261402
 30
0.0
 10
-2.158563504389228
 20
-4.263324576836424
 30
0.0
 10
-2.186864287369281
 20
-4.378202813071609
 30
0.0
 10
-2.219798040465104
 20
-4.493858473627714
 30
0.0
  0
ELLIPSE
  5
12152
330
120DA
100
AcDbEntity
  8
0
100
AcDbEllipse
 10
-0.1906999166515932
 20
-13.82187880745654
 30
0.0
 11
-2.845016671409655
 21
0.0003752858813615
 31
0.0
210
0.0
220
0.0
230
1.0
 40
0.5773502557949274
 41
3.927143133426287
 42
5.489000844442663
  0
LINE
  5
12153
330
120DA
100
AcDbEntity
  8
0
100
AcDbLine
 10
3.616773130611072
 20
-137.4677854352101
 30
0.0
 11
10.21492826234714
 21
-141.2772320766728
 31
0.0
  0
LINE
  5
12154
330
120DA
100
AcDbEntity
  8
0
100
AcDbLine
 10
34.83124538183531
 20
-162.2089096544693
 30
0.0
 11
34.79862528464877
 21
-162.1900764325777
 31
0.0
  0
ELLIPSE
  5
12155
330
120DA
100
AcDbEntity
  8
0
100
AcDbEllipse
 10
36.96214926073324
 20
-35.38794632482605
 30
0.0
 11
1.958652948960984
 21
7.64597529500122
 31
0.0
210
0.0
220
0.0
230
1.0
 40
0.282485953668131
 41
4.642855765822187
 42
4.64903178587919
  0
LINE
  5
12156
330
120DA
100
AcDbEntity
  8
0
100
AcDbLine
 10
42.72318001595151
 20
-30.44169895268336
 30
0.0
 11
40.98766824404974
 21
-37.596220749827
 31
0.0
  0
SPLINE
  5
12157
330
120DA
100
AcDbEntity
  8
0
100
AcDbSpline
210
0.0
220
0.0
230
1.0
 70
     8
 71
     3
 72
    16
 73
    12
 74
     0
 42
0.000000001
 43
0.0000000001
 40
-0.6535552918003738
 40
-0.6535552918003738
 40
-0.6535552918003738
 40
-0.6535552918003738
 40
-0.5440372284880662
 40
-0.5440372284880662
 40
-0.4153261261667753
 40
-0.4153261261667753
 40
-0.2323475610793966
 40
-0.2323475610793966
 40
-0.1902941471998348
 40
-0.1902941471998348
 40
-0.1778435367624424
 40
-0.1778435367624424
 40
-0.1778435367624424
 40
-0.1778435367624424
 10
38.99368455800701
 20
-36.42423166454563
 30
0.0
 10
39.22156074737147
 20
-35.61496068648704
 30
0.0
 10
39.5235807538217
 20
-34.86077042450562
 30
0.0
 10
40.3326155586371
 20
-33.3500719409307
 30
0.0
 10
40.80311042944057
 20
-32.73416656170758
 30
0.0
 10
41.79021266804571
 20
-31.59824749358663
 30
0.0
 10
42.29317932282495
 20
-31.17045889383785
 30
0.0
 10
42.61394158575344
 20
-30.70521981188481
 30
0.0
 10
42.66415745416246
 20
-30.61661407617469
 30
0.0
 10
42.70749286223626
 20
-30.49847945477294
 30
0.0
 10
42.71618581071516
 20
-30.47053205806897
 30
0.0
 10
42.72318001595151
 20
-30.44169895268336
 30
0.0
  0
LINE
  5
12158
330
120DA
100
AcDbEntity
  8
0
100
AcDbLine
 10
40.98766824404974
 20
-37.596220749827
 30
0.0
 11
38.95875651711064
 21
-36.458804388741
 31
0.0
  0
LINE
  5
12159
330
120DA
100
AcDbEntity
  8
0
100
AcDbLine
 10
-2.201708006524554
 20
-12.71875276724833
 30
0.0
 11
-2.202583707417207
 21
-12.66031715927978
 31
0.0
  0
LINE
  5
1215A
330
120DA
100
AcDbEntity
  8
0
100
AcDbLine
 10
-4.214467498182807
 20
-11.49875551110302
 30
0.0
 11
-2.202583707417207
 21
-12.66031715927978
 31
0.0
  0
ELLIPSE
  5
1215B
330
120DA
100
AcDbEntity
  8
0
100
AcDbEllipse
 10
-0.1889485148662917
 20
-13.93875002339358
 30
0.0
 11
1.713249815145677
 21
7.780352644413283
 31
0.0
210
0.0
220
0.0
230
1.0
 40
0.2809423609205012
 41
1.466491327579772
 42
1.475429943358301
  0
SPLINE
  5
1215C
330
120DA
100
AcDbEntity
  8
0
100
AcDbSpline
210
0.0
220
0.0
230
1.0
 70
     8
 71
     3
 72
    16
 73
    12
 74
     0
 42
0.000000001
 43
0.0000000001
 40
-1.16233960369339
 40
-1.16233960369339
 40
-1.16233960369339
 40
-1.16233960369339
 40
-1.147834256298444
 40
-1.147834256298444
 40
-1.036972199348643
 40
-1.036972199348643
 40
-0.645255720822963
 40
-0.645255720822963
 40
-0.2954461127886836
 40
-0.2954461127886836
 40
0.0
 40
0.0
 40
0.0
 40
0.0
 10
-2.219798040465112
 20
-4.493858473627714
 30
0.0
 10
-2.223257103162148
 20
-4.506006039203125
 30
0.0
 10
-2.226411872021345
 20
-4.518372968523198
 30
0.0
 10
-2.251260040638323
 20
-4.626834950092248
 30
0.0
 10
-2.258783766655421
 20
-4.741575280959064
 30
0.0
 10
-2.246477839661462
 20
-5.334198106620213
 30
0.0
 10
-2.108478063329135
 20
-6.015676759348966
 30
0.0
 10
-1.878912928951508
 20
-7.684527822029671
 30
0.0
 10
-1.775530130948497
 20
-8.688286600766605
 30
0.0
 10
-1.839707274797119
 20
-10.80918669319494
 30
0.0
 10
-1.96377833465287
 20
-11.74941540330437
 30
0.0
 10
-2.184522856559301
 20
-12.6499825289995
 30
0.0
  0
LINE
  5
1215D
330
120DA
100
AcDbEntity
  8
0
100
AcDbLine
 10
-4.214467498182807
 20
-11.49875551110302
 30
0.0
 11
-2.219798040465112
 21
-4.493858473627714
 31
0.0
  0
ELLIPSE
  5
1215E
330
120DA
100
AcDbEntity
  8
0
100
AcDbEllipse
 10
-1.163417202633945
 20
-155.73522669796
 30
0.0
 11
-8.724899999999999
 21
0.000000000000514
 31
0.0
210
0.0
220
0.0
230
1.0
 40
0.5773502691896262
 41
3.559460745883336
 42
8.692868820154682
  0
ELLIPSE
  5
1215F
330
120DA
100
AcDbEntity
  8
0
100
AcDbEllipse
 10
-1.163417202633945
 20
-158.0579961713832
 30
0.0
 11
-8.724900000000003
 21
-0.000000000000526
 31
0.0
210
0.0
220
0.0
230
1.0
 40
0.577350269189626
 41
3.680988346980374
 42
6.050536348374154
  0
ELLIPSE
  5
12160
330
120DA
100
AcDbEntity
  8
0
100
AcDbEllipse
 10
-1.163417202633945
 20
-160.5962238413812
 30
0.0
 11
-8.724899999999998
 21
-0.0000000000005296
 31
0.0
210
0.0
220
0.0
230
1.0
 40
0.5773502691896257
 41
3.79615575621686
 42
5.779680866394771
  0
ELLIPSE
  5
12161
330
120DA
100
AcDbEntity
  8
0
100
AcDbEllipse
 10
-1.163417202633945
 20
-158.2734543679581
 30
0.0
 11
-8.724899999999998
 21
-0.000000000000009
 31
0.0
210
0.0
220
0.0
230
1.0
 40
0.577350269189626
 41
3.691351224945996
 42
6.028498737054178
  0
ELLIPSE
  5
12162
330
120DA
100
AcDbEntity
  8
0
100
AcDbEllipse
 10
-1.16341720263394
 20
-160.6044107667831
 30
0.0
 11
8.724900000000003
 21
-0.000000000000521
 31
0.0
210
0.0
220
0.0
230
1.0
 40
0.5773502691896267
 41
0.6549134143584219
 42
2.637160210572023
  0
ELLIPSE
  5
12163
330
120DA
100
AcDbEntity
  8
0
100
AcDbEllipse
 10
-1.16341720263394
 20
-162.9271802402064
 30
0.0
 11
-8.724899999999999
 21
-0.0000000000005207
 31
0.0
210
0.0
220
0.0
230
1.0
 40
0.5773502691896266
 41
3.93659689322021
 42
5.488181067548691
  0
ELLIPSE
  5
12164
330
120DA
100
AcDbEntity
  8
0
100
AcDbEllipse
 10
-1.163417202633945
 20
-165.2876161574129
 30
0.0
 11
-8.724899999999994
 21
-0.0000000000000039
 31
0.0
210
0.0
220
0.0
230
1.0
 40
0.577350269189626
 41
4.388991577646807
 42
5.03578638312257
  0
ELLIPSE
  5
12165
330
120DA
100
AcDbEntity
  8
0
100
AcDbEllipse
 10
-1.16341720263394
 20
-162.9648466839897
 30
0.0
 11
8.724899999999999
 21
-0.0000000000005168
 31
0.0
210
0.0
220
0.0
230
1.0
 40
0.577350269189626
 41
0.8003577758477122
 42
2.341234877742547
  0
LINE
  5
12166
330
120DA
100
AcDbEntity
  8
0
100
AcDbLine
 10
0.4987746676098448
 20
-176.7085578537475
 30
0.0
 11
38.95875651711065
 21
-36.458804388741
 31
0.0
  0
LINE
  5
12167
330
120DA
100
AcDbEntity
  8
0
100
AcDbLine
 10
0.4987746676098448
 20
-176.7085578537475
 30
0.0
 11
2.510045665752418
 21
-177.9103036228487
 31
0.0
  0
LINE
  5
12168
330
120DA
100
AcDbEntity
  8
0
100
AcDbLine
 10
40.98766824404974
 20
-37.596220749827
 30
0.0
 11
2.510045665752418
 21
-177.9103036228487
 31
0.0
  0
LINE
  5
12169
330
120DA
100
AcDbEntity
  8
0
100
AcDbLine
 10
-2.202583707417207
 20
-12.66031715927978
 30
0.0
 11
-36.78085946393756
 21
-156.4664372938754
 31
0.0
  0
LINE
  5
1216A
330
120DA
100
AcDbEntity
  8
0
100
AcDbLine
 10
-39.02292911994965
 20
-156.2621858489028
 30
0.0
 11
-4.214467498182807
 21
-11.49875551110302
 31
0.0
  0
LINE
  5
1216B
330
120DA
100
AcDbEntity
  8
0
100
AcDbLine
 10
-37.45918968562277
 20
-157.1650112322538
 30
0.0
 11
-39.02292911994965
 21
-156.2621858489028
 31
0.0
  0
LINE
  5
1216C
330
120DA
100
AcDbEntity
  8
0
100
AcDbLine
 10
-35.61673033386803
 20
-155.6012652057397
 30
0.0
 11
-0.9313890918508205
 21
-175.6268563087524
 31
0.0
  0
LINE
  5
1216D
330
120DA
100
AcDbEntity
  8
0
100
AcDbLine
 10
-3.056117690095763
 20
-181.6297636666305
 30
0.0
 11
-0.9313890918507938
 21
-182.8564762947821
 31
0.0
  0
LINE
  5
1216E
330
120DA
100
AcDbEntity
  8
0
100
AcDbLine
 10
-3.856199091850815
 20
-185.4689705609644
 30
0.0
 11
-38.54154033386802
 21
-165.4433794579517
 31
0.0
  0
ELLIPSE
  5
1216F
330
120DA
100
AcDbEntity
  8
0
100
AcDbEllipse
 10
34.66135554491973
 20
-154.6218289667282
 30
0.0
 11
2.844799999999994
 21
-4.92733813737191
 31
0.0
210
0.0
220
0.0
230
0.9999999999999998
 40
0.5773502691896246
 41
0.0
 42
0.7679448708775159
  0
ELLIPSE
  5
12170
330
120DA
100
AcDbEntity
  8
0
100
AcDbEllipse
 10
-1.512496330532737
 20
-175.5068120846463
 30
0.0
 11
2.84479999999995
 21
-4.927338137371968
 31
0.0
210
0.0
220
0.0
230
0.9999999999999998
 40
0.5773502691896323
 41
5.497787143782056
 42
7.051130178057096
  0
ELLIPSE
  5
12171
330
120DA
100
AcDbEntity
  8
0
100
AcDbEllipse
 10
-1.512496330532742
 20
-175.5068120846463
 30
0.0
 11
1.422399999999993
 21
-2.463669068685967
 31
0.0
210
0.0
220
0.0
230
0.9999999999999998
 40
0.577350269189634
 41
5.723121675472762
 42
7.051130178057086
  0
LINE
  5
12172
330
120DA
100
AcDbEntity
  8
0
100
AcDbLine
 10
-1.512496330532733
 20
-180.1523510314927
 30
0.0
 11
-1.512496330532733
 21
-178.3786704130885
 31
0.0
  0
LINE
  5
12173
330
120DA
100
AcDbEntity
  8
0
100
AcDbLine
 10
2.510045665752418
 20
-177.9103036228487
 30
0.0
 11
38.68389754120486
 21
-157.0253205049305
 31
0.0
  0
LINE
  5
12174
330
120DA
100
AcDbEntity
  8
0
100
AcDbLine
 10
1.332303669467238
 20
-180.4341502220183
 30
0.0
 11
37.50615554491971
 21
-159.5491671041001
 31
0.0
  0
ENDBLK
  5
120DC
330
120DA
100
AcDbEntity
  8
0
100
AcDbBlockEnd
  0
ENDSEC
  0
SECTION
  2
ENTITIES
  0
INSERT
  5
12175
330
1F
100
AcDbEntity
  8
0
100
AcDbBlockReference
  2
HTT5-Front
 10
0.0
 20
0.0
 30
0.0
  0
INSERT
  5
12176
330
1F
100
AcDbEntity
  8
0
100
AcDbBlockReference
  2
HTT5-Left
 10
152.9302367074474
 20
0.0
 30
0.0
  0
INSERT
  5
12177
330
1F
100
AcDbEntity
  8
0
100
AcDbBlockReference
  2
HTT5-Right
 10
-152.9302367074475
 20
0.0
 30
0.0
  0
INSERT
  5
12178
330
1F
100
AcDbEntity
  8
0
100
AcDbBlockReference
  2
HTT5-Top
 10
0.0
 20
-120.9675
 30
0.0
  0
INSERT
  5
12179
330
1F
100
AcDbEntity
  8
0
100
AcDbBlockReference
  2
HTT5-Bottom
 10
0.0
 20
524.1925
 30
0.0
  0
INSERT
  5
1217A
330
1F
100
AcDbEntity
  8
0
100
AcDbBlockReference
  2
HTT5-ISO
 10
192.6832730106797
 20
-306.6228720844009
 30
0.0
  0
MTEXT
  5
1217B
330
1F
100
AcDbEntity
  8
0
100
AcDbMText
 10
0.0
 20
-305.3202226988784
 30
0.0
 40
40.32250000000001
 41
0.0
 71
     5
 72
     5
  1
HTT5
 73
     1
 44
1.0
1001
ACAD
1000
MTEXTBEGIN
1070
    73
1070
     1
1070
    44
1040
1.0
1070
    74
1070
     0
1000
MTEXTEND
  0
ENDSEC
  0
SECTION
  2
OBJECTS
  0
DICTIONARY
  5
C
330
0
100
AcDbDictionary
281
     1
  3
ACAD_CIP_PREVIOUS_PRODUCT_INFO
350
216
  3
ACAD_COLOR
350
6B
  3
ACAD_DETAILVIEWSTYLE
350
21B
  3
ACAD_GROUP
350
D
  3
ACAD_LAYOUT
350
1A
  3
ACAD_MATERIAL
350
6A
  3
ACAD_MLEADERSTYLE
350
12D
  3
ACAD_MLINESTYLE
350
17
  3
ACAD_PLOTSETTINGS
350
19
  3
ACAD_PLOTSTYLENAME
350
E
  3
ACAD_SCALELIST
350
10C
  3
ACAD_SECTIONVIEWSTYLE
350
219
  3
ACAD_TABLESTYLE
350
7E
  3
ACAD_VISUALSTYLE
350
EF
  3
ACDB_RECOMPOSE_DATA
350
1227C
  3
AcDbVariableDictionary
350
5E
  3
DWGPROPS
350
1227D
  0
DICTIONARY
  5
121CC
330
8
100
AcDbDictionary
280
     1
281
     1
  0
DICTIONARY
  5
1FF
330
2
100
AcDbDictionary
280
     1
281
     1
  3
ACAD_LAYERSTATES
360
200
  0
DICTIONARY
  5
13C
330
10
100
AcDbDictionary
280
     1
281
     1
  0
DICTIONARY
  5
1CE
330
1F
100
AcDbDictionary
280
     1
281
     1
  3
ACAD_LAYOUTSELFREF
360
121D4
  0
DICTIONARY
  5
1217F
330
D2
100
AcDbDictionary
280
     1
281
     1
  3
ACAD_LAYOUTSELFREF
360
121DD
  0
DICTIONARY
  5
12181
330
D6
100
AcDbDictionary
280
     1
281
     1
  3
ACAD_LAYOUTSELFREF
360
121E0
  0
XRECORD
  5
216
102
{ACAD_REACTORS
330
C
102
}
330
C
100
AcDbXrecord
280
     1
300
ACD
300
2021
300

  0
DICTIONARY
  5
6B
102
{ACAD_REACTORS
330
C
102
}
330
C
100
AcDbDictionary
281
     1
  0
DICTIONARY
  5
21B
102
{ACAD_REACTORS
330
C
102
}
330
C
100
AcDbDictionary
281
     1
  3
Metric50
350
21C
  0
DICTIONARY
  5
D
102
{ACAD_REACTORS
330
C
102
}
330
C
100
AcDbDictionary
281
     1
  0
DICTIONARY
  5
1A
102
{ACAD_REACTORS
330
C
102
}
330
C
100
AcDbDictionary
281
     1
  3
Layout1
350
D3
  3
Layout2
350
D7
  3
Model
350
22
  0
DICTIONARY
  5
6A
102
{ACAD_REACTORS
330
C
102
}
330
C
100
AcDbDictionary
281
     1
  3
ByBlock
350
ED
  3
ByLayer
350
EC
  3
Global
350
EE
  0
DICTIONARY
  5
12D
102
{ACAD_REACTORS
330
C
102
}
330
C
100
AcDbDictionary
281
     1
  3
Standard
350
12E
  0
DICTIONARY
  5
17
102
{ACAD_REACTORS
330
C
102
}
330
C
100
AcDbDictionary
281
     1
  3
Standard
350
18
  0
DICTIONARY
  5
19
102
{ACAD_REACTORS
330
C
102
}
330
C
100
AcDbDictionary
281
     1
  0
ACDBDICTIONARYWDFLT
  5
E
102
{ACAD_REACTORS
330
C
102
}
330
C
100
AcDbDictionary
281
     1
  3
Normal
350
F
100
AcDbDictionaryWithDefault
340
F
  0
DICTIONARY
  5
10C
102
{ACAD_REACTORS
330
C
102
}
330
C
100
AcDbDictionary
281
     1
  3
A0
350
10D
  3
A1
350
1BE
  3
A2
350
1BF
  3
A3
350
1C0
  3
A4
350
1C1
  3
A5
350
1C2
  3
A6
350
1C3
  3
A7
350
1C4
  3
A8
350
1C5
  3
A9
350
1C6
  3
B0
350
1C7
  3
B1
350
1C8
  3
B2
350
1C9
  3
B3
350
1CA
  3
B4
350
1CB
  3
B5
350
1CC
  3
B6
350
1CD
  0
DICTIONARY
  5
219
102
{ACAD_REACTORS
330
C
102
}
330
C
100
AcDbDictionary
281
     1
  3
Metric50
350
21A
  0
DICTIONARY
  5
7E
102
{ACAD_REACTORS
330
C
102
}
330
C
100
AcDbDictionary
281
     1
  3
Standard
350
7F
  0
DICTIONARY
  5
EF
102
{ACAD_REACTORS
330
C
102
}
330
C
100
AcDbDictionary
281
     1
  3
2dWireframe
350
F5
  3
Basic
350
F4
  3
Brighten
350
FB
  3
ColorChange
350
FF
  3
Conceptual
350
F8
  3
Dim
350
FA
  3
EdgeColorOff
350
1E6
  3
Facepattern
350
FE
  3
Flat
350
F0
  3
FlatWithEdges
350
F1
  3
Gouraud
350
F2
  3
GouraudWithEdges
350
F3
  3
Hidden
350
F7
  3
JitterOff
350
1E4
  3
Linepattern
350
FD
  3
OverhangOff
350
1E5
  3
Realistic
350
F9
  3
Shaded
350
1F3
  3
Shaded with edges
350
1F2
  3
Shades of Gray
350
1EF
  3
Sketchy
350
1F0
  3
Thicken
350
FC
  3
Wireframe
350
F6
  3
X-Ray
350
1F1
  0
XRECORD
  5
1227C
102
{ACAD_REACTORS
330
C
102
}
330
C
100
AcDbXrecord
280
     1
 90
        1
330
7F
  0
DICTIONARY
  5
5E
102
{ACAD_REACTORS
330
C
102
}
330
C
100
AcDbDictionary
281
     1
  3
CANNOSCALE
350
146
  3
CENTEREXE
350
259
  3
CENTERLTYPEFILE
350
25A
  3
CMLEADERSTYLE
350
145
  3
CTABLESTYLE
350
84
  3
CVIEWDETAILSTYLE
350
227
  3
CVIEWSECTIONSTYLE
350
228
  3
DIMASSOC
350
5F
  3
HIDETEXT
350
63
  3
INDEXCTL
350
12229
  3
LAYEREVAL
350
1AE
  3
LAYERNOTIFY
350
1AF
  3
LIGHTINGUNITS
350
12227
  3
MSLTSCALE
350
12226
  3
PSOLHEIGHT
350
12279
  3
PSOLWIDTH
350
12278
  3
SORTENTS
350
12228
  3
XCLIPFRAME
350
1227A
  0
XRECORD
  5
1227D
102
{ACAD_REACTORS
330
C
102
}
330
C
100
AcDbXrecord
280
     1
  1
DWGPROPS COOKIE
  2

  3

  4

  6

  7

  8
tronnguyen
  9

300
=
301
=
302
=
303
=
304
=
305
=
306
=
307
=
308
=
309
=
 40
0.0012384259259259
 41
2460105.576319445
 42
2460105.582719908
  1

 90
        0
  0
DICTIONARY
  5
200
102
{ACAD_REACTORS
330
1FF
102
}
330
1FF
100
AcDbDictionary
281
     1
  0
XRECORD
  5
121D4
102
{ACAD_REACTORS
330
1CE
102
}
330
1CE
100
AcDbXrecord
280
     1
340
1F
  0
XRECORD
  5
121DD
102
{ACAD_REACTORS
330
1217F
102
}
330
1217F
100
AcDbXrecord
280
     1
340
D2
  0
XRECORD
  5
121E0
102
{ACAD_REACTORS
330
12181
102
}
330
12181
100
AcDbXrecord
280
     1
340
D6
  0
ACDBDETAILVIEWSTYLE
  5
21C
102
{ACAD_XDICTIONARY
360
122BC
102
}
102
{ACAD_REACTORS
330
21B
102
}
330
21B
100
AcDbModelDocViewStyle
 70
     0
  3
Metric50
290
     0
100
AcDbDetailViewStyle
 70
     0
 71
     0
 90
        3
 71
     1
340
11
 40
5.0
340
0
 40
5.0
300

 40
0.0
280
     1
 71
     2
340
16
 90
       25
 71
     3
340
11
 40
5.0
 90
        0
 40
15.0
 90
        1
300
%<\AcVar ViewDetailId>% (%<\AcVar ViewScale \f "%sn">%)
 71
     4
340
16
 90
       25
340
16
 90
       25
280
     0
  0
LAYOUT
  5
D3
102
{ACAD_XDICTIONARY
360
12281
102
}
102
{ACAD_REACTORS
330
1A
102
}
330
1A
100
AcDbPlotSettings
  1

  2
C:\Documents and Settings\basas\Application Data\Autodesk\AutoCAD 2005\R16.1\enu\plotters\Default Windows System Printer.pc3
  4

  6

 40
0.0
 41
0.0
 42
0.0
 43
0.0
 44
0.0
 45
0.0
 46
0.0
 47
0.0
 48
0.0
 49
0.0
140
0.0
141
0.0
142
1.0
143
1.0
 70
   688
 72
     0
 73
     0
 74
     5
  7

 75
    16
147
1.0
148
0.0
149
0.0
100
AcDbLayout
  1
Layout1
 70
     1
 71
     1
 10
0.0
 20
0.0
 11
12.0
 21
9.0
 12
0.0
 22
0.0
 32
0.0
 14
0.0
 24
0.0
 34
0.0
 15
0.0
 25
0.0
 35
0.0
146
0.0
 13
0.0
 23
0.0
 33
0.0
 16
1.0
 26
0.0
 36
0.0
 17
0.0
 27
1.0
 37
0.0
 76
     0
330
D2
  0
LAYOUT
  5
D7
102
{ACAD_XDICTIONARY
360
12283
102
}
102
{ACAD_REACTORS
330
1A
102
}
330
1A
100
AcDbPlotSettings
  1

  2
C:\Documents and Settings\basas\Application Data\Autodesk\AutoCAD 2005\R16.1\enu\plotters\Default Windows System Printer.pc3
  4

  6

 40
0.0
 41
0.0
 42
0.0
 43
0.0
 44
0.0
 45
0.0
 46
0.0
 47
0.0
 48
0.0
 49
0.0
140
0.0
141
0.0
142
1.0
143
1.0
 70
   688
 72
     0
 73
     0
 74
     5
  7

 75
    16
147
1.0
148
0.0
149
0.0
100
AcDbLayout
  1
Layout2
 70
     1
 71
     2
 10
0.0
 20
0.0
 11
12.0
 21
9.0
 12
0.0
 22
0.0
 32
0.0
 14
0.0
 24
0.0
 34
0.0
 15
0.0
 25
0.0
 35
0.0
146
0.0
 13
0.0
 23
0.0
 33
0.0
 16
1.0
 26
0.0
 36
0.0
 17
0.0
 27
1.0
 37
0.0
 76
     0
330
D6
  0
LAYOUT
  5
22
102
{ACAD_XDICTIONARY
360
1227E
102
}
102
{ACAD_REACTORS
330
1A
102
}
330
1A
100
AcDbPlotSettings
  1

  2
none_device
  4
ISO_A4_(210.00_x_297.00_MM)
  6

 40
7.5
 41
20.0
 42
7.5
 43
20.0
 44
210.0
 45
297.0
 46
11.54999923706054
 47
-13.65000009536743
 48
0.0
 49
0.0
140
0.0
141
0.0
142
1.0
143
8.704084754739808
 70
 11952
 72
     1
 73
     0
 74
     0
  7

 75
     0
147
0.1148885871608098
148
0.0
149
0.0
100
AcDbLayout
  1
Model
 70
     1
 71
     0
 10
0.0
 20
0.0
 11
12.0
 21
9.0
 12
0.0
 22
0.0
 32
0.0
 14
0.0
 24
0.0
 34
0.0
 15
0.0
 25
0.0
 35
0.0
146
0.0
 13
0.0
 23
0.0
 33
0.0
 16
1.0
 26
0.0
 36
0.0
 17
0.0
 27
1.0
 37
0.0
 76
     0
330
1F
331
EA
1001
ACAD_PSEXT
1000
None
1000
None
1000
Not applicable
1000
The layout will not be plotted unless a new plotter configuration name is selected.
1070
     0
  0
MATERIAL
  5
ED
102
{ACAD_XDICTIONARY
360
1F9
102
}
102
{ACAD_REACTORS
330
6A
102
}
330
6A
100
AcDbMaterial
  1
ByBlock
  0
MATERIAL
  5
EC
102
{ACAD_XDICTIONARY
360
1F7
102
}
102
{ACAD_REACTORS
330
6A
102
}
330
6A
100
AcDbMaterial
  1
ByLayer
  0
MATERIAL
  5
EE
102
{ACAD_XDICTIONARY
360
173
102
}
102
{ACAD_REACTORS
330
6A
102
}
330
6A
100
AcDbMaterial
  1
Global
 43
0.0007999999797903
 43
0.0
 43
0.0
 43
0.0
 43
0.0
 43
0.0007999999797903
 43
0.0
 43
0.0
 43
0.0
 43
0.0
 43
1.0
 43
0.0
 43
0.0
 43
0.0
 43
0.0
 43
1.0
 49
0.0007999999797903
 49
0.0
 49
0.0
 49
0.0
 49
0.0
 49
0.0007999999797903
 49
0.0
 49
0.0
 49
0.0
 49
0.0
 49
1.0
 49
0.0
 49
0.0
 49
0.0
 49
0.0
 49
1.0
142
0.0007999999797903
142
0.0
142
0.0
142
0.0
142
0.0
142
0.0007999999797903
142
0.0
142
0.0
142
0.0
142
0.0
142
1.0
142
0.0
142
0.0
142
0.0
142
0.0
142
1.0
144
0.0007999999797903
144
0.0
144
0.0
144
0.0
144
0.0
144
0.0007999999797903
144
0.0
144
0.0
144
0.0
144
0.0
144
1.0
144
0.0
144
0.0
144
0.0
144
0.0
144
1.0
1001
ACAD
1070
    -1
1070
     3
1070
     0
1000

1071
        0
1070
     0
  0
MLEADERSTYLE
  5
12E
102
{ACAD_XDICTIONARY
360
122A8
102
}
102
{ACAD_REACTORS
330
12D
102
}
330
12D
100
AcDbMLeaderStyle
170
     2
171
     1
172
     0
 90
        2
 40
0.0
 41
0.0
173
     1
 91
-1056964608
340
14
 92
       -2
290
     1
 42
2.0
291
     1
 43
8.0
  3
Standard
 44
4.0
300

342
11
174
     1
178
     1
175
     1
176
     0
 93
-1056964608
 45
4.0
292
     0
297
     0
 46
4.0
 94
-1056964608
 47
1.0
 49
1.0
140
1.0
293
     1
141
0.0
294
     1
177
     0
142
1.0
295
     0
296
     0
143
3.75
1001
ACAD_MLEADERVER
1070
     2
  0
MLINESTYLE
  5
18
102
{ACAD_REACTORS
330
17
102
}
330
17
100
AcDbMlineStyle
  2
STANDARD
 70
     0
  3

 62
   256
 51
90.0
 52
90.0
 71
     2
 49
0.5
 62
   256
  6
BYLAYER
 49
-0.5
 62
   256
  6
BYLAYER
  0
ACDBPLACEHOLDER
  5
F
102
{ACAD_REACTORS
330
E
102
}
330
E
  0
SCALE
  5
10D
102
{ACAD_REACTORS
330
10C
102
}
330
10C
100
AcDbScale
 70
     0
300
1:1
140
1.0
141
1.0
290
     1
  0
SCALE
  5
1BE
102
{ACAD_REACTORS
330
10C
102
}
330
10C
100
AcDbScale
 70
     0
300
1:2
140
1.0
141
2.0
290
     0
  0
SCALE
  5
1BF
102
{ACAD_REACTORS
330
10C
102
}
330
10C
100
AcDbScale
 70
     0
300
1:4
140
1.0
141
4.0
290
     0
  0
SCALE
  5
1C0
102
{ACAD_REACTORS
330
10C
102
}
330
10C
100
AcDbScale
 70
     0
300
1:5
140
1.0
141
5.0
290
     0
  0
SCALE
  5
1C1
102
{ACAD_REACTORS
330
10C
102
}
330
10C
100
AcDbScale
 70
     0
300
1:8
140
1.0
141
8.0
290
     0
  0
SCALE
  5
1C2
102
{ACAD_REACTORS
330
10C
102
}
330
10C
100
AcDbScale
 70
     0
300
1:10
140
1.0
141
10.0
290
     0
  0
SCALE
  5
1C3
102
{ACAD_REACTORS
330
10C
102
}
330
10C
100
AcDbScale
 70
     0
300
1:16
140
1.0
141
16.0
290
     0
  0
SCALE
  5
1C4
102
{ACAD_REACTORS
330
10C
102
}
330
10C
100
AcDbScale
 70
     0
300
1:20
140
1.0
141
20.0
290
     0
  0
SCALE
  5
1C5
102
{ACAD_REACTORS
330
10C
102
}
330
10C
100
AcDbScale
 70
     0
300
1:30
140
1.0
141
30.0
290
     0
  0
SCALE
  5
1C6
102
{ACAD_REACTORS
330
10C
102
}
330
10C
100
AcDbScale
 70
     0
300
1:40
140
1.0
141
40.0
290
     0
  0
SCALE
  5
1C7
102
{ACAD_REACTORS
330
10C
102
}
330
10C
100
AcDbScale
 70
     0
300
1:50
140
1.0
141
50.0
290
     0
  0
SCALE
  5
1C8
102
{ACAD_REACTORS
330
10C
102
}
330
10C
100
AcDbScale
 70
     0
300
1:100
140
1.0
141
100.0
290
     0
  0
SCALE
  5
1C9
102
{ACAD_REACTORS
330
10C
102
}
330
10C
100
AcDbScale
 70
     0
300
2:1
140
2.0
141
1.0
290
     0
  0
SCALE
  5
1CA
102
{ACAD_REACTORS
330
10C
102
}
330
10C
100
AcDbScale
 70
     0
300
4:1
140
4.0
141
1.0
290
     0
  0
SCALE
  5
1CB
102
{ACAD_REACTORS
330
10C
102
}
330
10C
100
AcDbScale
 70
     0
300
8:1
140
8.0
141
1.0
290
     0
  0
SCALE
  5
1CC
102
{ACAD_REACTORS
330
10C
102
}
330
10C
100
AcDbScale
 70
     0
300
10:1
140
10.0
141
1.0
290
     0
  0
SCALE
  5
1CD
102
{ACAD_REACTORS
330
10C
102
}
330
10C
100
AcDbScale
 70
     0
300
100:1
140
100.0
141
1.0
290
     0
  0
ACDBSECTIONVIEWSTYLE
  5
21A
102
{ACAD_XDICTIONARY
360
122BA
102
}
102
{ACAD_REACTORS
330
219
102
}
330
219
100
AcDbModelDocViewStyle
 70
     0
  3
Metric50
290
     0
100
AcDbSectionViewStyle
 70
     0
 71
     0
 90
      102
 71
     1
340
11
 40
5.0
340
0
340
0
 40
5.0
300
I, O, Q, S, X, Z
 40
10.0
 90
        0
 40
2.5
 90
        0
 71
     2
340
16
 90
       25
340
16
 90
       50
 40
5.0
 40
2.5
 40
5.0
 71
     3
340
11
 40
5.0
 90
        0
 40
15.0
 90
        1
300
%<\AcVar ViewSectionStartId>%-%<\AcVar ViewSectionEndId>% (%<\AcVar ViewScale \f "%sn">%)
 71
     4
300
ANSI31
 40
1.0
 90
        0
290
     0
290
     0
 90
        6
 40
0.0
 40
1.570796326794896
 40
0.2617993877991494
 40
1.308996938995747
 40
-0.2617993877991494
 40
1.832595714594046
  0
TABLESTYLE
  5
7F
102
{ACAD_XDICTIONARY
360
162
102
}
102
{ACAD_REACTORS
330
7E
102
}
330
7E
100
AcDbTableStyle
  3
Standard
 70
     0
 71
     0
 40
1.5
 41
1.5
280
     0
281
     0
  7
Standard
140
4.5
170
     2
 62
     0
 63
     7
283
     0
274
    -2
284
     1
 64
     0
275
    -2
285
     1
 65
     0
276
    -2
286
     1
 66
     0
277
    -2
287
     1
 67
     0
278
    -2
288
     1
 68
     0
279
    -2
289
     1
 69
     0
  7
Standard
140
6.0
170
     5
 62
     0
 63
     7
283
     0
274
    -2
284
     1
 64
     0
275
    -2
285
     1
 65
     0
276
    -2
286
     1
 66
     0
277
    -2
287
     1
 67
     0
278
    -2
288
     1
 68
     0
279
    -2
289
     1
 69
     0
  7
Standard
140
4.5
170
     5
 62
     0
 63
     7
283
     0
274
    -2
284
     1
 64
     0
275
    -2
285
     1
 65
     0
276
    -2
286
     1
 66
     0
277
    -2
287
     1
 67
     0
278
    -2
288
     1
 68
     0
279
    -2
289
     1
 69
     0
  0
VISUALSTYLE
  5
F5
102
{ACAD_XDICTIONARY
360
12292
102
}
102
{ACAD_REACTORS
330
EF
102
}
330
EF
100
AcDbVisualStyle
  2
2dWireframe
 70
     4
 71
     0
 72
     2
 73
     1
 90
        0
 40
-0.6
 41
-30.0
 62
     5
 63
     7
 74
     1
 91
        4
 64
     7
 65
   257
 75
     1
175
     1
 42
1.0
 92
        0
 66
   257
 43
1.0
 76
     1
 77
     6
 78
     2
 67
     7
 79
     5
170
     0
171
     0
290
     0
174
     0
 93
        1
 44
0.0
173
     0
291
     0
 45
0.0
1001
ACAD
1000
AcDbSavedByObjectVersion
1070
     0
  0
VISUALSTYLE
  5
F4
102
{ACAD_XDICTIONARY
360
12290
102
}
102
{ACAD_REACTORS
330
EF
102
}
330
EF
100
AcDbVisualStyle
  2
Basic
 70
     7
 71
     1
 72
     0
 73
     1
 90
        0
 40
-0.6
 41
-30.0
 62
     5
 63
     7
 74
     0
 91
        4
 64
     7
 65
   257
 75
     1
175
     1
 42
1.0
 92
        8
 66
     7
 43
1.0
 76
     1
 77
     6
 78
     2
 67
     7
 79
     5
170
     0
171
     0
290
     0
174
     0
 93
        1
 44
0.0
173
     0
291
     1
 45
0.0
1001
ACAD
1000
AcDbSavedByObjectVersion
1070
     0
  0
VISUALSTYLE
  5
FB
102
{ACAD_XDICTIONARY
360
1229E
102
}
102
{ACAD_REACTORS
330
EF
102
}
330
EF
100
AcDbVisualStyle
  2
Brighten
 70
    12
 71
     2
 72
     2
 73
     1
 90
        0
 40
-0.6
 41
-30.0
 62
     5
 63
     7
 74
     1
 91
        4
 64
     7
 65
   257
 75
     1
175
     1
 42
1.0
 92
        8
 66
     7
 43
1.0
 76
     1
 77
     6
 78
     2
 67
     7
 79
     5
170
     0
171
     0
290
     0
174
     0
 93
        1
 44
50.0
173
     0
291
     1
 45
0.0
1001
ACAD
1000
AcDbSavedByObjectVersion
1070
     0
  0
VISUALSTYLE
  5
FF
102
{ACAD_XDICTIONARY
360
122A6
102
}
102
{ACAD_REACTORS
330
EF
102
}
330
EF
100
AcDbVisualStyle
  2
ColorChange
 70
    16
 71
     2
 72
     2
 73
     3
 90
        0
 40
-0.6
 41
-30.0
 62
     5
 63
     8
 74
     1
 91
        4
 64
     7
 65
   257
 75
     1
175
     1
 42
1.0
 92
        8
 66
     8
 43
1.0
 76
     1
 77
     6
 78
     2
 67
     7
 79
     5
170
     0
171
     0
290
     0
174
     0
 93
        1
 44
0.0
173
     0
291
     1
 45
0.0
1001
ACAD
1000
AcDbSavedByObjectVersion
1070
     0
  0
VISUALSTYLE
  5
F8
102
{ACAD_XDICTIONARY
360
12298
102
}
102
{ACAD_REACTORS
330
EF
102
}
330
EF
100
AcDbVisualStyle
  2
Conceptual
 70
     9
 71
     3
 72
     2
 73
     1
 90
        0
 40
-0.6
 41
-30.0
 62
     5
 63
     7
 74
     2
 91
        2
 64
     7
 65
   257
 75
     1
175
     1
 42
40.0
 92
        8
 66
     7
 43
1.0
 76
     1
 77
     6
 78
     2
 67
     7
 79
     3
170
     0
171
     0
290
     0
174
     0
 93
        1
 44
0.0
173
     0
291
     0
 45
0.0
1001
ACAD
1000
AcDbSavedByObjectVersion
1070
     0
  0
VISUALSTYLE
  5
FA
102
{ACAD_XDICTIONARY
360
1229C
102
}
102
{ACAD_REACTORS
330
EF
102
}
330
EF
100
AcDbVisualStyle
  2
Dim
 70
    11
 71
     2
 72
     2
 73
     1
 90
        0
 40
-0.6
 41
-30.0
 62
     5
 63
     7
 74
     1
 91
        4
 64
     7
 65
   257
 75
     1
175
     1
 42
1.0
 92
        8
 66
     7
 43
1.0
 76
     1
 77
     6
 78
     2
 67
     7
 79
     5
170
     0
171
     0
290
     0
174
     0
 93
        1
 44
-50.0
173
     0
291
     1
 45
0.0
1001
ACAD
1000
AcDbSavedByObjectVersion
1070
     0
  0
VISUALSTYLE
  5
1E6
102
{ACAD_XDICTIONARY
360
122AE
102
}
102
{ACAD_REACTORS
330
EF
102
}
330
EF
100
AcDbVisualStyle
  2
EdgeColorOff
 70
    22
 71
     2
 72
     2
 73
     0
 90
        0
 40
-0.6
 41
-30.0
 62
     5
 63
     7
 74
     1
 91
        4
 64
     7
 65
   257
 75
     1
175
     1
 42
1.0
 92
        8
 66
     7
 43
1.0
 76
     1
 77
     6
 78
     2
 67
     7
 79
     5
170
     0
171
     0
290
     0
174
     0
 93
        1
 44
0.0
173
     0
291
     1
 45
0.0
1001
ACAD
1000
AcDbSavedByObjectVersion
1070
     0
  0
VISUALSTYLE
  5
FE
102
{ACAD_XDICTIONARY
360
122A4
102
}
102
{ACAD_REACTORS
330
EF
102
}
330
EF
100
AcDbVisualStyle
  2
Facepattern
 70
    15
 71
     2
 72
     2
 73
     1
 90
        0
 40
-0.6
 41
-30.0
 62
     5
 63
     7
 74
     1
 91
        4
 64
     7
 65
   257
 75
     1
175
     1
 42
1.0
 92
        8
 66
     7
 43
1.0
 76
     1
 77
     6
 78
     2
 67
     7
 79
     5
170
     0
171
     0
290
     0
174
     0
 93
        1
 44
0.0
173
     0
291
     1
 45
0.0
1001
ACAD
1000
AcDbSavedByObjectVersion
1070
     0
  0
VISUALSTYLE
  5
F0
102
{ACAD_XDICTIONARY
360
12288
102
}
102
{ACAD_REACTORS
330
EF
102
}
330
EF
100
AcDbVisualStyle
  2
Flat
 70
     0
 71
     2
 72
     1
 73
     1
 90
        2
 40
-0.6
 41
30.0
 62
     5
 63
     7
 74
     0
 91
        0
 64
     7
 65
   257
 75
     1
175
     1
 42
1.0
 92
        8
 66
     7
 43
1.0
 76
     1
 77
     6
 78
     2
 67
     7
 79
     5
170
     0
171
     0
290
     0
174
     0
 93
       13
 44
0.0
173
     0
291
     1
 45
0.0
1001
ACAD
1000
AcDbSavedByObjectVersion
1070
     0
  0
VISUALSTYLE
  5
F1
102
{ACAD_XDICTIONARY
360
1228A
102
}
102
{ACAD_REACTORS
330
EF
102
}
330
EF
100
AcDbVisualStyle
  2
FlatWithEdges
 70
     1
 71
     2
 72
     1
 73
     1
 90
        2
 40
-0.6
 41
30.0
 62
     5
 63
     7
 74
     1
 91
        0
 64
     7
 65
   257
 75
     1
175
     1
 42
1.0
 92
        0
 66
   257
 43
1.0
 76
     1
 77
     6
 78
     2
 67
     7
 79
     5
170
     0
171
     0
290
     0
174
     0
 93
       13
 44
0.0
173
     0
291
     1
 45
0.0
1001
ACAD
1000
AcDbSavedByObjectVersion
1070
     0
  0
VISUALSTYLE
  5
F2
102
{ACAD_XDICTIONARY
360
1228C
102
}
102
{ACAD_REACTORS
330
EF
102
}
330
EF
100
AcDbVisualStyle
  2
Gouraud
 70
     2
 71
     2
 72
     2
 73
     1
 90
        2
 40
-0.6
 41
30.0
 62
     5
 63
     7
 74
     0
 91
        0
 64
     7
 65
   257
 75
     1
175
     1
 42
1.0
 92
        0
 66
     7
 43
1.0
 76
     1
 77
     6
 78
     2
 67
     7
 79
     5
170
     0
171
     0
290
     0
174
     0
 93
       13
 44
0.0
173
     0
291
     1
 45
0.0
1001
ACAD
1000
AcDbSavedByObjectVersion
1070
     0
  0
VISUALSTYLE
  5
F3
102
{ACAD_XDICTIONARY
360
1228E
102
}
102
{ACAD_REACTORS
330
EF
102
}
330
EF
100
AcDbVisualStyle
  2
GouraudWithEdges
 70
     3
 71
     2
 72
     2
 73
     1
 90
        2
 40
-0.6
 41
30.0
 62
     5
 63
     7
 74
     1
 91
        0
 64
     7
 65
   257
 75
     1
175
     1
 42
1.0
 92
        0
 66
   257
 43
1.0
 76
     1
 77
     6
 78
     2
 67
     7
 79
     5
170
     0
171
     0
290
     0
174
     0
 93
       13
 44
0.0
173
     0
291
     1
 45
0.0
1001
ACAD
1000
AcDbSavedByObjectVersion
1070
     0
  0
VISUALSTYLE
  5
F7
102
{ACAD_XDICTIONARY
360
12296
102
}
102
{ACAD_REACTORS
330
EF
102
}
330
EF
100
AcDbVisualStyle
  2
Hidden
 70
     6
 71
     1
 72
     2
 73
     2
 90
        0
 40
-0.6
 41
-30.0
 62
     5
 63
     7
 74
     2
 91
        2
 64
     7
 65
   257
 75
     2
175
     1
 42
40.0
 92
        0
 66
   257
 43
1.0
 76
     1
 77
     6
 78
     2
 67
     7
 79
     3
170
     0
171
     0
290
     0
174
     0
 93
        1
 44
0.0
173
     0
291
     0
 45
0.0
1001
ACAD
1000
AcDbSavedByObjectVersion
1070
     0
  0
VISUALSTYLE
  5
1E4
102
{ACAD_XDICTIONARY
360
122AA
102
}
102
{ACAD_REACTORS
330
EF
102
}
330
EF
100
AcDbVisualStyle
  2
JitterOff
 70
    20
 71
     2
 72
     2
 73
     0
 90
        0
 40
-0.6
 41
-30.0
 62
     5
 63
     7
 74
     1
 91
        4
 64
     7
 65
   257
 75
     1
175
     1
 42
1.0
 92
       10
 66
     7
 43
1.0
 76
     1
 77
     6
 78
     2
 67
     7
 79
     5
170
     0
171
     0
290
     0
174
     0
 93
        1
 44
0.0
173
     0
291
     1
 45
0.0
1001
ACAD
1000
AcDbSavedByObjectVersion
1070
     0
  0
VISUALSTYLE
  5
FD
102
{ACAD_XDICTIONARY
360
122A2
102
}
102
{ACAD_REACTORS
330
EF
102
}
330
EF
100
AcDbVisualStyle
  2
Linepattern
 70
    14
 71
     2
 72
     2
 73
     1
 90
        0
 40
-0.6
 41
-30.0
 62
     5
 63
     7
 74
     1
 91
        4
 64
     7
 65
   257
 75
     7
175
     7
 42
1.0
 92
        8
 66
     7
 43
1.0
 76
     1
 77
     6
 78
     2
 67
     7
 79
     5
170
     0
171
     0
290
     0
174
     0
 93
        1
 44
0.0
173
     0
291
     1
 45
0.0
1001
ACAD
1000
AcDbSavedByObjectVersion
1070
     0
  0
VISUALSTYLE
  5
1E5
102
{ACAD_XDICTIONARY
360
122AC
102
}
102
{ACAD_REACTORS
330
EF
102
}
330
EF
100
AcDbVisualStyle
  2
OverhangOff
 70
    21
 71
     2
 72
     2
 73
     0
 90
        0
 40
-0.6
 41
-30.0
 62
     5
 63
     7
 74
     1
 91
        4
 64
     7
 65
   257
 75
     1
175
     1
 42
1.0
 92
        9
 66
     7
 43
1.0
 76
     1
 77
     6
 78
     2
 67
     7
 79
     5
170
     0
171
     0
290
     0
174
     0
 93
        1
 44
0.0
173
     0
291
     1
 45
0.0
1001
ACAD
1000
AcDbSavedByObjectVersion
1070
     0
  0
VISUALSTYLE
  5
F9
102
{ACAD_XDICTIONARY
360
1229A
102
}
102
{ACAD_REACTORS
330
EF
102
}
330
EF
100
AcDbVisualStyle
  2
Realistic
 70
     8
 71
     2
 72
     2
 73
     0
 90
        2
 40
-0.6
 41
30.0
 62
     5
 63
     7
 74
     0
 91
        0
 64
     7
 65
   257
 75
     1
175
     1
 42
1.0
 92
        8
 66
   257
 43
1.0
 76
     1
 77
     6
 78
     2
 67
     7
 79
     3
170
     0
171
     0
290
     0
174
     0
 93
       13
 44
0.0
173
     0
291
     0
 45
0.0
1001
ACAD
1000
AcDbSavedByObjectVersion
1070
     0
  0
VISUALSTYLE
  5
1F3
102
{ACAD_XDICTIONARY
360
122B8
102
}
102
{ACAD_REACTORS
330
EF
102
}
330
EF
100
AcDbVisualStyle
  2
Shaded
 70
    27
 71
     2
 72
     2
 73
     1
 90
        2
 40
-0.6
 41
30.0
 62
     5
 63
     7
 74
     0
 91
        4
 64
     7
 65
   257
 75
     1
175
     1
 42
1.0
 92
        8
 66
   257
 43
1.0
 76
     1
 77
     6
 78
     2
 67
     8
 79
     3
170
     0
171
     0
290
     0
174
     0
 93
        5
 44
0.0
173
     0
291
     0
 45
0.0
1001
ACAD
1000
AcDbSavedByObjectVersion
1070
     0
  0
VISUALSTYLE
  5
1F2
102
{ACAD_XDICTIONARY
360
122B6
102
}
102
{ACAD_REACTORS
330
EF
102
}
330
EF
100
AcDbVisualStyle
  2
Shaded with edges
 70
    26
 71
     2
 72
     2
 73
     1
 90
        2
 40
-0.6
 41
30.0
 62
     5
 63
     7
 74
     1
 91
        2
 64
     7
 65
   257
 75
     2
175
     1
 42
1.0
 92
        8
 66
   257
 43
1.0
 76
     1
 77
     6
 78
     2
 67
     7
 79
     3
170
     0
171
     0
290
     0
174
     0
 93
        5
 44
0.0
173
     0
291
     0
 45
0.0
1001
ACAD
1000
AcDbSavedByObjectVersion
1070
     0
  0
VISUALSTYLE
  5
1EF
102
{ACAD_XDICTIONARY
360
122B0
102
}
102
{ACAD_REACTORS
330
EF
102
}
330
EF
100
AcDbVisualStyle
  2
Shades of Gray
 70
    23
 71
     2
 72
     2
 73
     3
 90
        0
 40
-0.6
 41
-30.0
 62
     5
 63
     7
 74
     2
 91
        2
 64
     7
 65
     7
 75
     1
175
     1
 42
40.0
 92
        8
 66
     7
 43
1.0
 76
     1
 77
     6
 78
     2
 67
     7
 79
     3
170
     0
171
     0
290
     0
174
     0
 93
        1
 44
0.0
173
     0
291
     0
 45
0.0
1001
ACAD
1000
AcDbSavedByObjectVersion
1070
     0
  0
VISUALSTYLE
  5
1F0
102
{ACAD_XDICTIONARY
360
122B2
102
}
102
{ACAD_REACTORS
330
EF
102
}
330
EF
100
AcDbVisualStyle
  2
Sketchy
 70
    24
 71
     1
 72
     2
 73
     2
 90
        0
 40
-0.6
 41
-30.0
 62
     5
 63
     7
 74
     2
 91
        2
 64
     7
 65
     7
 75
     1
175
     1
 42
40.0
 92
       11
 66
     7
 43
1.0
 76
     1
 77
     6
 78
     2
 67
     7
 79
     6
170
     0
171
     0
290
     0
174
     0
 93
        1
 44
0.0
173
     0
291
     0
 45
0.0
1001
ACAD
1000
AcDbSavedByObjectVersion
1070
     0
  0
VISUALSTYLE
  5
FC
102
{ACAD_XDICTIONARY
360
122A0
102
}
102
{ACAD_REACTORS
330
EF
102
}
330
EF
100
AcDbVisualStyle
  2
Thicken
 70
    13
 71
     2
 72
     2
 73
     1
 90
        0
 40
-0.6
 41
-30.0
 62
     5
 63
     7
 74
     1
 91
        4
 64
     7
 65
   257
 75
     1
175
     1
 42
1.0
 92
       12
 66
     7
 43
1.0
 76
     1
 77
     6
 78
     2
 67
     7
 79
     5
170
     0
171
     0
290
     0
174
     0
 93
        1
 44
0.0
173
     0
291
     1
 45
0.0
1001
ACAD
1000
AcDbSavedByObjectVersion
1070
     0
  0
VISUALSTYLE
  5
F6
102
{ACAD_XDICTIONARY
360
12294
102
}
102
{ACAD_REACTORS
330
EF
102
}
330
EF
100
AcDbVisualStyle
  2
Wireframe
 70
     5
 71
     0
 72
     2
 73
     0
 90
        0
 40
-0.6
 41
-30.0
 62
     5
 63
     7
 74
     1
 91
        4
 64
     7
 65
   257
 75
     1
175
     1
 42
1.0
 92
        0
 66
   257
 43
1.0
 76
     1
 77
     6
 78
     2
 67
     7
 79
     3
170
     0
171
     0
290
     0
174
     0
 93
        1
 44
0.0
173
     0
291
     0
 45
0.0
1001
ACAD
1000
AcDbSavedByObjectVersion
1070
     0
  0
VISUALSTYLE
  5
1F1
102
{ACAD_XDICTIONARY
360
122B4
102
}
102
{ACAD_REACTORS
330
EF
102
}
330
EF
100
AcDbVisualStyle
  2
X-Ray
 70
    25
 71
     2
 72
     2
 73
     1
 90
        1
 40
0.5
 41
-30.0
 62
     5
 63
     7
 74
     1
 91
        0
 64
     7
 65
   257
 75
     1
175
     1
 42
1.0
 92
        8
 66
     7
 43
1.0
 76
     1
 77
     6
 78
     2
 67
     7
 79
     3
170
     0
171
     0
290
     0
174
     0
 93
       13
 44
0.0
173
     0
291
     0
 45
0.0
1001
ACAD
1000
AcDbSavedByObjectVersion
1070
     0
  0
DICTIONARYVAR
  5
146
102
{ACAD_REACTORS
330
5E
102
}
330
5E
100
DictionaryVariables
280
     0
  1
1:1
  0
DICTIONARYVAR
  5
259
102
{ACAD_REACTORS
330
5E
102
}
330
5E
100
DictionaryVariables
280
     0
  1
3.500000
  0
DICTIONARYVAR
  5
25A
102
{ACAD_REACTORS
330
5E
102
}
330
5E
100
DictionaryVariables
280
     0
  1
acadiso.lin
  0
DICTIONARYVAR
  5
145
102
{ACAD_REACTORS
330
5E
102
}
330
5E
100
DictionaryVariables
280
     0
  1
STANDARD
  0
DICTIONARYVAR
  5
84
102
{ACAD_REACTORS
330
5E
102
}
330
5E
100
DictionaryVariables
280
     0
  1
STANDARD
  0
DICTIONARYVAR
  5
227
102
{ACAD_REACTORS
330
5E
102
}
330
5E
100
DictionaryVariables
280
     0
  1
Metric50
  0
DICTIONARYVAR
  5
228
102
{ACAD_REACTORS
330
5E
102
}
330
5E
100
DictionaryVariables
280
     0
  1
Metric50
  0
DICTIONARYVAR
  5
5F
102
{ACAD_REACTORS
330
5E
102
}
330
5E
100
DictionaryVariables
280
     0
  1
2
  0
DICTIONARYVAR
  5
63
102
{ACAD_REACTORS
330
5E
102
}
330
5E
100
DictionaryVariables
280
     0
  1
1
  0
DICTIONARYVAR
  5
12229
102
{ACAD_REACTORS
330
5E
102
}
330
5E
100
DictionaryVariables
280
     0
  1
0
  0
DICTIONARYVAR
  5
1AE
102
{ACAD_REACTORS
330
5E
102
}
330
5E
100
DictionaryVariables
280
     0
  1
0
  0
DICTIONARYVAR
  5
1AF
102
{ACAD_REACTORS
330
5E
102
}
330
5E
100
DictionaryVariables
280
     0
  1
0
  0
DICTIONARYVAR
  5
12227
102
{ACAD_REACTORS
330
5E
102
}
330
5E
100
DictionaryVariables
280
     0
  1
2
  0
DICTIONARYVAR
  5
12226
102
{ACAD_REACTORS
330
5E
102
}
330
5E
100
DictionaryVariables
280
     0
  1
1
  0
DICTIONARYVAR
  5
12279
102
{ACAD_REACTORS
330
5E
102
}
330
5E
100
DictionaryVariables
280
     0
  1
80.000000
  0
DICTIONARYVAR
  5
12278
102
{ACAD_REACTORS
330
5E
102
}
330
5E
100
DictionaryVariables
280
     0
  1
5.000000
  0
DICTIONARYVAR
  5
12228
102
{ACAD_REACTORS
330
5E
102
}
330
5E
100
DictionaryVariables
280
     0
  1
127
  0
DICTIONARYVAR
  5
1227A
102
{ACAD_REACTORS
330
5E
102
}
330
5E
100
DictionaryVariables
280
     0
  1
2
  0
DICTIONARY
  5
122BC
330
21C
100
AcDbDictionary
280
     1
281
     1
  3
ACAD_XREC_ROUNDTRIP
360
122BD
  0
DICTIONARY
  5
12281
330
D3
100
AcDbDictionary
280
     1
281
     1
  3
ACAD_XREC_ROUNDTRIP
360
12282
  0
DICTIONARY
  5
12283
330
D7
100
AcDbDictionary
280
     1
281
     1
  3
ACAD_XREC_ROUNDTRIP
360
12284
  0
DICTIONARY
  5
1227E
330
22
100
AcDbDictionary
280
     1
281
     1
  3
ACAD_XREC_ROUNDTRIP
360
1227F
  0
DICTIONARY
  5
1F9
330
ED
100
AcDbDictionary
280
     1
281
     1
  3
ACAD_XREC_ROUNDTRIP
360
12286
  3
FBXASSET
360
1FA
  0
DICTIONARY
  5
1F7
330
EC
100
AcDbDictionary
280
     1
281
     1
  3
ACAD_XREC_ROUNDTRIP
360
12285
  3
FBXASSET
360
1F8
  0
DICTIONARY
  5
173
330
EE
100
AcDbDictionary
280
     1
281
     1
  3
ACAD_XREC_ROUNDTRIP
360
12287
  3
BUMPTILE
360
175
  3
DIFFUSETILE
360
174
  3
FBXASSET
360
1FB
  3
OPACITYTILE
360
176
  3
REFLECTIONTILE
360
177
  0
DICTIONARY
  5
122A8
330
12E
100
AcDbDictionary
280
     1
281
     1
  3
ACAD_XREC_ROUNDTRIP
360
122A9
  0
DICTIONARY
  5
122BA
330
21A
100
AcDbDictionary
280
     1
281
     1
  3
ACAD_XREC_ROUNDTRIP
360
122BB
  0
DICTIONARY
  5
162
330
7F
100
AcDbDictionary
280
     1
281
     1
  3
ACAD_ROUNDTRIP_2008_TABLESTYLE_CELLSTYLEMAP
360
1227B
  3
ACAD_XREC_ROUNDTRIP
360
12280
  0
DICTIONARY
  5
12292
330
F5
100
AcDbDictionary
280
     1
281
     1
  3
ACAD_XREC_ROUNDTRIP
360
12293
  0
DICTIONARY
  5
12290
330
F4
100
AcDbDictionary
280
     1
281
     1
  3
ACAD_XREC_ROUNDTRIP
360
12291
  0
DICTIONARY
  5
1229E
330
FB
100
AcDbDictionary
280
     1
281
     1
  3
ACAD_XREC_ROUNDTRIP
360
1229F
  0
DICTIONARY
  5
122A6
330
FF
100
AcDbDictionary
280
     1
281
     1
  3
ACAD_XREC_ROUNDTRIP
360
122A7
  0
DICTIONARY
  5
12298
330
F8
100
AcDbDictionary
280
     1
281
     1
  3
ACAD_XREC_ROUNDTRIP
360
12299
  0
DICTIONARY
  5
1229C
330
FA
100
AcDbDictionary
280
     1
281
     1
  3
ACAD_XREC_ROUNDTRIP
360
1229D
  0
DICTIONARY
  5
122AE
330
1E6
100
AcDbDictionary
280
     1
281
     1
  3
ACAD_XREC_ROUNDTRIP
360
122AF
  0
DICTIONARY
  5
122A4
330
FE
100
AcDbDictionary
280
     1
281
     1
  3
ACAD_XREC_ROUNDTRIP
360
122A5
  0
DICTIONARY
  5
12288
330
F0
100
AcDbDictionary
280
     1
281
     1
  3
ACAD_XREC_ROUNDTRIP
360
12289
  0
DICTIONARY
  5
1228A
330
F1
100
AcDbDictionary
280
     1
281
     1
  3
ACAD_XREC_ROUNDTRIP
360
1228B
  0
DICTIONARY
  5
1228C
330
F2
100
AcDbDictionary
280
     1
281
     1
  3
ACAD_XREC_ROUNDTRIP
360
1228D
  0
DICTIONARY
  5
1228E
330
F3
100
AcDbDictionary
280
     1
281
     1
  3
ACAD_XREC_ROUNDTRIP
360
1228F
  0
DICTIONARY
  5
12296
330
F7
100
AcDbDictionary
280
     1
281
     1
  3
ACAD_XREC_ROUNDTRIP
360
12297
  0
DICTIONARY
  5
122AA
330
1E4
100
AcDbDictionary
280
     1
281
     1
  3
ACAD_XREC_ROUNDTRIP
360
122AB
  0
DICTIONARY
  5
122A2
330
FD
100
AcDbDictionary
280
     1
281
     1
  3
ACAD_XREC_ROUNDTRIP
360
122A3
  0
DICTIONARY
  5
122AC
330
1E5
100
AcDbDictionary
280
     1
281
     1
  3
ACAD_XREC_ROUNDTRIP
360
122AD
  0
DICTIONARY
  5
1229A
330
F9
100
AcDbDictionary
280
     1
281
     1
  3
ACAD_XREC_ROUNDTRIP
360
1229B
  0
DICTIONARY
  5
122B8
330
1F3
100
AcDbDictionary
280
     1
281
     1
  3
ACAD_XREC_ROUNDTRIP
360
122B9
  0
DICTIONARY
  5
122B6
330
1F2
100
AcDbDictionary
280
     1
281
     1
  3
ACAD_XREC_ROUNDTRIP
360
122B7
  0
DICTIONARY
  5
122B0
330
1EF
100
AcDbDictionary
280
     1
281
     1
  3
ACAD_XREC_ROUNDTRIP
360
122B1
  0
DICTIONARY
  5
122B2
330
1F0
100
AcDbDictionary
280
     1
281
     1
  3
ACAD_XREC_ROUNDTRIP
360
122B3
  0
DICTIONARY
  5
122A0
330
FC
100
AcDbDictionary
280
     1
281
     1
  3
ACAD_XREC_ROUNDTRIP
360
122A1
  0
DICTIONARY
  5
12294
330
F6
100
AcDbDictionary
280
     1
281
     1
  3
ACAD_XREC_ROUNDTRIP
360
12295
  0
DICTIONARY
  5
122B4
330
1F1
100
AcDbDictionary
280
     1
281
     1
  3
ACAD_XREC_ROUNDTRIP
360
122B5
  0
XRECORD
  5
122BD
102
{ACAD_REACTORS
330
122BC
102
}
330
122BC
100
AcDbXrecord
280
     1
102
DISPLAYNAME
  1
Metric50
102
FLAGS
 90
        0
  0
XRECORD
  5
12282
102
{ACAD_REACTORS
330
12281
102
}
330
12281
100
AcDbXrecord
280
     1
102
SHADEPLOT
 70
     0
102
SHADEPLOTRESLEVEL
 70
     2
102
SHADEPLOTCUSTOMDPI
 70
   300
  0
XRECORD
  5
12284
102
{ACAD_REACTORS
330
12283
102
}
330
12283
100
AcDbXrecord
280
     1
102
SHADEPLOT
 70
     0
102
SHADEPLOTRESLEVEL
 70
     2
102
SHADEPLOTCUSTOMDPI
 70
   300
  0
XRECORD
  5
1227F
102
{ACAD_REACTORS
330
1227E
102
}
330
1227E
100
AcDbXrecord
280
     1
102
SHADEPLOT
 70
     0
102
SHADEPLOTRESLEVEL
 70
     2
102
SHADEPLOTCUSTOMDPI
 70
   300
  0
XRECORD
  5
12286
102
{ACAD_REACTORS
330
1F9
102
}
330
1F9
100
AcDbXrecord
280
     1
102
MATERIAL
148
0.0
149
0.0
149
0.0
 93
        0
 94
       63
282
     0
 72
     1
 77
     1
171
     1
175
     1
179
     1
273
     0
  0
XRECORD
  5
1FA
102
{ACAD_REACTORS
330
1F9
102
}
330
1F9
100
AcDbXrecord
280
     1
 70
     1
 90
429727718
  1
D62C5603-E3A1-4AEA-B7FB-FE5D8D0755AF
310
504B03040A0000080000CC70623B3DEE336E79000000790000001B0000006175746F6465736B2D64657369676E2D7061636B6167652E786D6C3C3F786D6C2076657273696F6E3D22312E302220656E636F64696E673D227574662D3822203F3E3C666F726D6174733E3C666F726D61743E687474703A2F2F736368656D612E
310
6175746F6465736B2E636F6D2F64657369676E2D7061636B6167652F323030393C2F666F726D61743E3C2F666F726D6174733E504B0304140006080800CC70623BD486FD9CA0000000F4000000130000005B436F6E74656E745F54797065735D2E786D6C7D8EC10E82300C865F65E91D8A1E8C310C0EEA1BF002731658846E
310
D98AC1B77784ABF1D8FE5FBFBF75BBCE937A534CCEB38643598122B6FEE978D0B0485F9C41B54DDD7D022595594E1A469170414C76A4D9A4D207E29CF43ECE46F218070CC6BECC4078ACAA135ACF422C856C0E68EA1BF5669944DDD7BCDE7B1F8E415D77AECB980613C2E4AC91FC167A2B244592486606FC29C8FD7F045B9A
310
EF7053A7E60B504B0304140006080800CC70623B853B8169EB0000007C01000008000000636F72652E786D6C8D90416EC3201045AF62CDB6C206821CC7C244919D9CA01740401C94182C03558F5F9C3852BBEB6A467FFE9B197D7EFC9E1EC5975982F5AE035262288C535E5B377690E21535501C055FBC8FBF6C503839990E
310
5619041F179FE64D52DE45E362569DD7661365082642A11EB9E920A89B99642953CC8E702F67A9EE7234257977194EC9EAE275C4EABCCF5EAD5940D4AC6F0E35A568B8F43562CD7046CD199FD07E60174276A7BE677B5EADB0E0D14EEFFB6A31321A0D82627C4084204C3F096B71DD52F6819B16635EADF63F509AF53FA164
310
5DDCD1EDDD17164090FCC8732078B56691CB33A85CD7DCC40F504B0304140006080800CC70623B55019EA25F0000007C00000007000000636E782E786D6C4DCB3B0E80201045D1AD90E915ED2CF8AC45050C11660C8261F98AB1B07AC9C97D42D718D865D3E909258CFD00CCE24AC6E326A164D74DC0B4128928FF32603847
310
2BA13128B1252AC747C6BAB984FC68F0B87FE8960A5C09FE86CFB69FBA01504B0304140006080800CC70623BDBABAAF470010000D40300000C0000006662782F636F72652E786D6CC553D16E823014FD95A6AF4B694182CC941A83FA05FB810A9511A125A5257EFE2E82712ECEB8A7F100CD39F7F69E734AF9FADC366850B6
310
AF8DCE7018308C942E4C59EB2AC3DE1D498AD15A706B8CFB56869196ADCAF00863C12B6B7C374385D14E6907A836A59A41D9F7CA615434B0C8705F7CAA5606D23BA8E84F41278B93AC54100640439DE0BDB320004D43C63716C7C399D30917DCFBBA9CD9BA8469F5B156168B24CED3F7248AC8769F27244EB73B92EED8862C
310
B7F13E0C179B3C8F979C8ECD82BBBABDAA2BAC924E9558448CBD9330242CFA08E3154B5651FCC6D215639C8EE5774DBE2B5F6CF2B5768B68963BB5F5588420E442FC700B1139D4CB01F450C1E918227C2E09DF070D8140C84E1E9AAB8F1340832A9CB13130A5F1376A908D57309505ECF2A0DF179C4E9D30F5B239B87E3823
310
7A79C6F31DE1A8A5AEC08474B03C7837EAE4938639B44E5932B833D2C6B6B279CDC613877FA26EE21F4A2A4C63EC7F29A2F301D1F9F7A0E37D145F504B0304140006080800CC70623B9C113CC27E0000009D0000000B0000006662782F636E782E786D6C4DCCDF0A83201C86E15B91DFB94BFB330DD428C8FB886521330DA7
310
6397BF1A1DECE883878F57749FCDA1B7892F1BBC047A23808C7F84D9FA55424E0BE6803A256208E9EF06C84F9B91703228B1C690F78B66B34CD9A5439DF5CF0BFBF65E35BCA1B8D6A5C6F540381E886698B5741C695F9503EBA150A2F8958E3DC3EA0B504B0304140006080800CC70623B7DF2F77C2A010000120200003100
310
00006662782F41393633353835312D344632462D344230382D423046372D3739314545314133324237412F636F72652E786D6C8D51DB8EC22014FC15C2939B0D2DB4B45643319AE817EC0F6041255A68B86CFCFC856D4D76DF7CE190393373060EDB3DC707F856CE6B6B7A480A0C81328395DA5C7B18C3057510EC3873D686
310
3F34088C18550F330C39BB3A1BA7051AAC09CA84841A2BD5020AEF55806078A44B0FFD7053A328440C89E1EFC52486BBB8AA8214A99D789CF9E05200300FC927E4FB4D5B375D43103D5527440FB843077C5AA3F5861C8F645F5787F59E95B390B318B55CE45AA638FAA2957BD7248B390B7A7CC51F9C124149C82B8C378810
310
84AB2F42B7B8DD56F413775B8C5999E9FF4471926F8AA236A1AE96B8B3CC434E5839373893369E1FAF30EA395917409EB7F26AF8801C171837A4A6AC9C89E9F9C9B1A58BA30FD6A5EF5DDDCF894B9AD9B6A59C957943A9FCAE2FD5BC4DFE03504B0304140006080800CC70623BAD7543B64E01000033030000300000006662
310
782F41393633353835312D344632462D344230382D423046372D3739314545314133324237412F636E782E786D6CD593CD6EC32010845F0571AD6CE3D48AD20813A9873E410FBD12D82434182C7EAAE6EDBB2424CD25871E7B41D6EC30B3FA84F9E67BB2E40B4234DE8DB46F1925E094D7C6ED479AD3AE5951B2113C789FEE
310
6C943839C1488B4C05DF079FE72A69D8C96C13AAD6B8631503449F83828872B949AC57D26200B826A308D316B4064D6E46FCDA41C05550DC9E483A00797BFD207EFB092A45DE9514C1BBD22178396BD39D891265658C238DEA00936C654E5E433CB65A26D9F6EDB5EBC14EBF49A45CB856E66048291F6939A9A81BB5C89177
310
38143CA680F4AA299D66A042CEB3354A2684DC9D8D178FE0D9B8B41CAAD720F880EE7EF93C0C18769E099ECC04D5A102C8049A8A05632F4DDF376CF1DE0F6BB65C2F8627B65A33C6BB62177CEBBDAD973006829F89F22E814B54F4BC2BE347F8AA8F681390B50FA73F804400B5F542E796F19FF974E7F78DB802FE05E20750
310
4B0304140006080800CC70623BE75B7789680500003C100000340000006662782F41393633353835312D344632462D344230382D423046372D3739314545314133324237412F6F626A656374732E786D6CAD575B8F9B3818FD2B887D06C22499CB8AA1CA655245D5B455A356FB305264C061D8018C6C3393D95FBFC7600890
310
A4CD5EF210B0B1BFEBF98E3F7B1FF6596ABC522E1296DF9BAE3D320D9A872C4AF2F8DE2CE5CEBA358D0FBEC719939D65A691938CDE9B6ADAF4BD98B3B2D05311DD91329583D9D5FC0F438434A7A611A644887B5384CF34233629258BA878B12322891DEFF6B66BD70BFB62634E8AE781D082709A4B588AF91C528CDA28B73F
310
1C998EEF39EABBEFA97FBD6A7C7E9553F9D3D79FE442923C3C523610337627CB87ABE99D359D4CC6D6E4FACAB5E6ABF9D2726FC6A3C5F56271377BB88362213924694B38DD99FE47C48627A1E7D49F5A8BB5E1A74C0A599ED3B0F21F1E56366B89112D681E218F0915D0D6F17AD41FBA2A369DCF6335D62ABBD39779D5DDD1
310
11D4D8DE3CBB96B2E04FB8202E41051754A1AA8E8F76B4C6DFE810B580B1547F4B84911149794252234D024EF8BBE963A95AE27B3D310A9D5C215C7960FAEE415ED75694C6AFB17BCACA5D99A60A9AA65F217B0BFC53292ACB92BF283FAD0D3621576592CB5BED907C2FA8E9DF794E35E97BEA31BED21FEB401ABB94C44839
310
DCACBF0E1C5DA8DA5B2F4DFFD32AD86F543D9E565E7056502E157C00AD2671CD534549AB752FCA9CDA00677A313F04E51B22FF19E57B300579E3C97EB29F682D92935CEC18CF901B7B54FD8C51F362B56FC72FE0B3C1EAE335EDCCBF5AEC39ADB17DC238973F804BA5E6F6BFE7AF1FB32E523BE9F3BD571418E3631DCA4D48
310
5250CF639223210A9446CA30052EDF057BD35F8329C1ECD84552BF0DC8D18BE7BCE23BFE6BD960AB4A7DE79923A103BEBD80F911CBAA2C60DB19B01CF164A5583B772EE6D3FFA56666CBCDA74DC97724A48F9A58967497E489C4D979006FD7A05E227A1EBDD0F737C623387A9C844D3709995625106D157315F8B8392CD4E0
310
A0B9A720C4BE9829CEF37EA1E13111214D53925356365ADA634861B52519DD27A00AEB808EAF0628E6F435519D446F45CF2C9CF5214F0A15B2F6D06B79DA3EE3CBF7F56780D2F4E7EF73A0F5E5B02A38D07DC852C6B7C1FBB6664213E0C39E3EBA7FF4E1AD23EA2829407C85E586727488B751B2DB9502BC7B228A3FD68B6E
310
A65A22397E690AA8D158D7E404EC8CDA235CC3B7D1898680131CEC2CDF2638C65196279577750F15884AEE19F94199155B92B13297978469D4F8D358DF0AEF7631E28DC8F0D9F437D5D39A83B2231A1D52D543813A824EF8D44BCFF2FA6A31BD1E8DAD87F1CCB526B3879935BF59CDADD5C37479BB1CDD4CA7B3556B516589
310
EF352754B706114D9C885EC9131DE6EFEB43D99AFE2391C2F958179413D7CFEF6B1B6DB1E7600F00DE6E5C67454A339A4BA2E0FBA85ED26F045D454F463DBFCE484C2F90F2E5E3666003662ED8F755951A7D1BECD5B30B550B2785C8E7320B7292A4838DDA71BBC863ED7613CAF659337A3354231D4FF4A182A54904C2898C
310
98B28C4AD0CE056CCF332A80986E571EE9DBC305BB5FEB7E509220A58D25CF042D712A806AC0AD0C657FDEF80D2D9CEAA2EE4D1C76F60BFE74219A06527D6F82DF6412526107381E55E353090704D085B52408A8913C4ED159D79BDA71BB4BC506F4831350EB6F975CD22D69BF7AC49B91A2C0A9DDA3D5CA36AD20FC478E37
310
E61844E2352865EBCB61A275A65283CAAA9DD27703B4102F5AF51EF5F573B75CBB5AD38BC845F7A49F82A0966A49C2E3EA5EA0ECD326CD965F1DB402C6FA8B51A4658C5C5E2EC9E214602E55810345408596591009A82E7E7FFACA19EEA299B14A0081A705CB3296EBC14CDF658DCD336EA6D1136881AAEB87B81AB9EE53D5
310
F5EB8BC8362082DA24122F98680A4E7930C01A0079749CEA14382A0783E5EBA5A10F8C098456A03D6A4AEB6BB881E2513747552A5DB22C7EDAF83BD5528081A365F7FF06504B0304140006080000CC70623B000000000000000000000000350000006662782F41393633353835312D344632462D344230382D423046372D37
310
39314545314133324237412F76657274696365732E62696E504B0304140006080800CC70623BF270F1330600000004000000360000006662782F41393633353835312D344632462D344230382D423046372D3739314545314133324237412F747269616E676C65732E62696E636660600000504B0304140006080000CC7062
310
3B000000000000000000000000370000006662782F41393633353835312D344632462D344230382D423046372D3739314545314133324237412F617474726962757465732E62696E504B0304140006080800CC70623B08DA0BD19000000041010000360000006662782F41393633353835312D344632462D344230382D4230
310
46372D3739314545314133324237412F6469726563746F72792E786D6C858F410AC3201045AF22B36F53E9A60B35CBEEBAE80D244E44489C6234F4F835464A48035D0DF398FF9F8AF63D0E6CC63039F212F8F9020C7D47C6792B21C5FE7403D62A1188E2E60C98D7234A5830286103A55745067B9D86B8A3CF9C7F90C11DE6
310
07FB144396D7B6A82D282E9A152AD114D5EF2CB866EEE831B8EEA07A7BB5A8D7D61A2BAAEB7FD5F70921FF497D00504B0304140006080800CC70623BEDD1DC58FD000000A00100003B0000006662782F41393633353835312D344632462D344230382D423046372D3739314545314133324237412F7265736F75726365732F
310
636F72652E786D6C8D504B6E833010BD0A9A6D65B00922041947112427E8052C33A156828DFCA97AFC9A40A576D7CDCCE87D344F8F9FBFE667F689CE6B6B3A6039850C8DB2A336530731DC4903D95970676DF82583CCC8193B5861107C72362E3BA4AC096842428D1D7107A5F7182053CF7474E0D507CE32973124857FE48B
310
540F3961CEF244279DE03EB81420DB9EAC1384436FA353E879B1B182C7A8C75DA3C7F453DF353A1075D537A7BA6464B8F535A99AE14A9A2BBD90E350DD183B5CFABE3AF262350B1EF4FC9351399401471025A527C218A1E53BAB5A5AB765F5469B96525EACF23FA6B88CFF34456DC2A1DCE36E360F82A5202F42F062ED2BAD
310
579969AFDD8A6F504B010214000A0000080000CC70623B3DEE336E79000000790000001B00000000000000000000000000000000006175746F6465736B2D64657369676E2D7061636B6167652E786D6C504B01021400140006080800CC70623BD486FD9CA0000000F40000001300000000000000000000000000B20000005B
310
436F6E74656E745F54797065735D2E786D6C504B01021400140006080800CC70623B853B8169EB0000007C010000080000000000000000000000000083010000636F72652E786D6C504B01021400140006080800CC70623B55019EA25F0000007C000000070000000000000000000000000094020000636E782E786D6C504B
310
01021400140006080800CC70623BDBABAAF470010000D40300000C00000000000000000000000000180300006662782F636F72652E786D6C504B01021400140006080800CC70623B9C113CC27E0000009D0000000B00000000000000000000000000B20400006662782F636E782E786D6C504B01021400140006080800CC70
310
623B7DF2F77C2A010000120200003100000000000000000000000000590500006662782F41393633353835312D344632462D344230382D423046372D3739314545314133324237412F636F72652E786D6C504B01021400140006080800CC70623BAD7543B64E010000330300003000000000000000000000000000D2060000
310
6662782F41393633353835312D344632462D344230382D423046372D3739314545314133324237412F636E782E786D6C504B01021400140006080800CC70623BE75B7789680500003C10000034000000000000000000000000006E0800006662782F41393633353835312D344632462D344230382D423046372D3739314545
310
314133324237412F6F626A656374732E786D6C504B01021400140006080000CC70623B0000000000000000000000003500000000000000000000000000280E00006662782F41393633353835312D344632462D344230382D423046372D3739314545314133324237412F76657274696365732E62696E504B01021400140006
310
080800CC70623BF270F133060000000400000036000000000000000000000000007B0E00006662782F41393633353835312D344632462D344230382D423046372D3739314545314133324237412F747269616E676C65732E62696E504B01021400140006080000CC70623B0000000000000000000000003700000000000000
310
000000000000D50E00006662782F41393633353835312D344632462D344230382D423046372D3739314545314133324237412F617474726962757465732E62696E504B01021400140006080800CC70623B08DA0BD1900000004101000036000000000000000000000000002A0F00006662782F41393633353835312D344632
310
462D344230382D423046372D3739314545314133324237412F6469726563746F72792E786D6C504B01021400140006080800CC70623BEDD1DC58FD000000A00100003B000000000000000000000000000E1000006662782F41393633353835312D344632462D344230382D423046372D3739314545314133324237412F7265
310
736F75726365732F636F72652E786D6C504B0506000000000E000E0080040000641100000000
  0
XRECORD
  5
12285
102
{ACAD_REACTORS
330
1F7
102
}
330
1F7
100
AcDbXrecord
280
     1
102
MATERIAL
148
0.0
149
0.0
149
0.0
 93
        0
 94
       63
282
     0
 72
     1
 77
     1
171
     1
175
     1
179
     1
273
     0
  0
XRECORD
  5
1F8
102
{ACAD_REACTORS
330
1F7
102
}
330
1F7
100
AcDbXrecord
280
     1
 70
     1
 90
429727718
  1
30362254-06B7-45E0-A893-8CFA70E3D6BC
310
504B03040A0000080000CC70623B3DEE336E79000000790000001B0000006175746F6465736B2D64657369676E2D7061636B6167652E786D6C3C3F786D6C2076657273696F6E3D22312E302220656E636F64696E673D227574662D3822203F3E3C666F726D6174733E3C666F726D61743E687474703A2F2F736368656D612E
310
6175746F6465736B2E636F6D2F64657369676E2D7061636B6167652F323030393C2F666F726D61743E3C2F666F726D6174733E504B0304140006080800CC70623BD486FD9CA0000000F4000000130000005B436F6E74656E745F54797065735D2E786D6C7D8EC10E82300C865F65E91D8A1E8C310C0EEA1BF002731658846E
310
D98AC1B77784ABF1D8FE5FBFBF75BBCE937A534CCEB38643598122B6FEE978D0B0485F9C41B54DDD7D022595594E1A469170414C76A4D9A4D207E29CF43ECE46F218070CC6BECC4078ACAA135ACF422C856C0E68EA1BF5669944DDD7BCDE7B1F8E415D77AECB980613C2E4AC91FC167A2B244592486606FC29C8FD7F045B9A
310
EF7053A7E60B504B0304140006080800CC70623B1EC5D7A3EB0000007C01000008000000636F72652E786D6C8D90416EC3201045AF82665B6103C6756C6122AB4D4ED00B204C5C94182C03558F5F9C3852BBEB6A467FFE9B197D71FC9E6FE8CBACC17AD7032D0820E3B41FAD9B7A48F1820F808E52ACDEC75F36404ECDA687
310
4D0629A6D5A76597B477D1B89855E747B38B2A041301E95B6E7A08FAD3CCAA50296647B8168BD2573599823EBB0CA76447F43862C7BCCF5EAC59410E4DDD9C7973C2755553CCCFA4C603E3040F1565ED3B1FDE4E432BCA0D9622DAF9795FAF464533826484B498524CD807E51D79ED187F21878E10516EF63F505AC67F42C9
310
BA58B1FDDD071640D2FCC87D2045B96591CB3DA85CB7DCE40F504B0304140006080800CC70623B55019EA25F0000007C00000007000000636E782E786D6C4DCB3B0E80201045D1AD90E915ED2CF8AC45050C11660C8261F98AB1B07AC9C97D42D718D865D3E909258CFD00CCE24AC6E326A164D74DC0B4128928FF32603847
310
2BA13128B1252AC747C6BAB984FC68F0B87FE8960A5C09FE86CFB69FBA01504B0304140006080800CC70623B8C9102E971010000D40300000C0000006662782F636F72652E786D6CC5535B6E833010BC8AE5DF0A6C08340F1947A84D4ED00B38C6A128602363A31CBFCB234A53A551FA553EC09AD9F5CE8C31DB9E9B1AF5CA
310
7695D1198E428A91D2D214952E33ECDD315861B4E5CC1AE3BE9561A445A3323CC098B3D21ADFCE9034DA29ED00D5A6503328BA4E398C640D8B0C77F253352214DE4145770A5B214FA2546114020D759C75CE8200340D19DE981F0F6746269C33EFAB6266AB02A655C74A59CCF365BADC27CB5D902ED22848F6340DF238A141
310
BE88E2F57B92BFEDF23523433367AE6A2EEAA455C2A902F398D2751045018D3FA264435F3771F242571B4A1919CA6F9A7C5B3CD9E42BED16F12C776AEB308F40C848FC700B1139D4891EF410CEC810227CC6846F8386402064270EF5C5C709A05E49676C024C61FC95EA45ED154CA5211D1FF4FB8291A913A68E9B83EBBB33
310
E2A7673CDE118E5AE8124C0807CB8377834E366998436B950D7A7746DAD846D4CFD978E0F04FD455FC5D49D2D4C6FE9722321F10997F0F32DC47FE05504B0304140006080800CC70623BFFEA85907E0000009D0000000B0000006662782F636E782E786D6C4DCCD10A83201886E15B91FFDC95D95A811AB6F23E625948A6C3
310
E9D8E5AF46073BFAE0E1E365ED67B3E8ADC3CB78C7815C7240DA3DFC64DCC221C519D7805AC182F7F1EF06C88D9BE6703008B6049F9E274D7A1E938DBB5AE3D6131B2589BA0D3D965551E0B2EA732C9B9A624AAEB41E3A557677029960D9AFB4EF11165F504B0304140006080800CC70623B4FEEA4082C0100001202000031
310
0000006662782F39464131463745442D413632322D343644302D413938332D3331353338454246344243312F636F72652E786D6C8D515B6EC32010BC0AE2AB55850DD871ED0813254D72825EC00192A2C460F1A872FC42ED48ED5F7E00CDCECCCEB26C731F6FE05B39AFADE921293004CA082BB5B9F43086336A21D870E6AC
310
0D7F68109861543DCC30E4ECE26C9C164858139409093556AA051CBC570102714B8F1E7AF1A5C6A11862480C7F2DA6415C878B2A4891CA89C7990F2E050073937C42DE1DB7E4F87ED8A36D4329AA9B3D46DBAEAD504556557BD81DEBDD0761E52CE42C462D17B996298E3E6BE59E35C962CE821E1FF18553435012728A7187
310
0841987E927A8D9B35ADDF70BBC6989599FE4F1427F9A4286A132ABAC49D651EF234CD5CE04CDA78BA3DC2A8FB645D00B9DF8B57E215725C60BCA2A463E54C4CE327C7A65E1C7DB02E7DEFCBF594B864C5CA6CDBD49C957943E9FA5D5FBAF336F90F504B0304140006080800CC70623BAD7543B64E01000033030000300000
310
006662782F39464131463745442D413632322D343644302D413938332D3331353338454246344243312F636E782E786D6CD593CD6EC32010845F0571AD6CE3D48AD20813A9873E410FBD12D82434182C7EAAE6EDBB2424CD25871E7B41D6EC30B3FA84F9E67BB2E40B4234DE8DB46F1925E094D7C6ED479AD3AE5951B2113C
310
789FEE6C943839C1488B4C05DF079FE72A69D8C96C13AAD6B8631503449F83828872B949AC57D26200B826A308D316B4064D6E46FCDA41C05550DC9E483A00797BFD207EFB092A45DE9514C1BBD22178396BD39D891265658C238DEA00936C654E5E433CB65A26D9F6EDB5EBC14EBF49A45CB856E66048291F6939A9A81BB5
310
C8917738143CA680F4AA299D66A042CEB3354A2684DC9D8D178FE0D9B8B41CAAD720F880EE7EF93C0C18769E099ECC04D5A102C8049A8A05632F4DDF376CF1DE0F6BB65C2F8627B65A33C6BB62177CEBBDAD973006829F89F22E814B54F4BC2BE347F8AA8F681390B50FA73F804400B5F542E796F19FF974E7F78DB802FE05
310
E207504B0304140006080800CC70623B16AB87BA640500003C100000340000006662782F39464131463745442D413632322D343644302D413938332D3331353338454246344243312F6F626A656374732E786D6CAD575B6FA33818FD2B887DE6924B3BED8A326A92B68A663B534DD4D13E548A0C38942D60649B369D5FBFC7
310
600890A493BDE42160637FD7F31D7FF63E6FB3D478A55C242CBF3247B66B1A340F5994E4F19559CA8D75611A9F7D8F33263BCB4C232719BD32D5B4E97B316765A1A722BA21652A07B3B7B33F0D11D29C9A46981221AE4C113ED38CD8A4942CA2E2C58E882476BCD9DA23BB5ED8171B73523C0F841684D35CC252CCE79062D4
310
468DFA43D7747CCF51DF7D4FFDEB5593E3AB9CCA9FBEFE241792E4E19EB28198C968BAB8199F5D5A67D3E9C49A9E8F47D6EC76B6B0469F26EEFC7C3EBFBCBEB98462213924694B38DD98FE1D62C393D073EA4FADC5DAF04326852CCF6958F90F0F2B9BB5C48816348F90C7840A68EB78EDF68723159BCEE7891A6B95DDE9D3
310
BCEAEEE8086A6C6F9E5D4B59F0175C10A7A0820BAA5055C7473B5AE3CFDD452D602CD5DF12616444529E90D448938013FE6EFA58AA96F85E4F8C42275708571E98FE6827AF6B2B4AE3D7D83D64E5A64C53054DD3AF90BD06FEA9149565C94FCA0F6B834DC85599E4F2423B24DF0B6AFA979E534DFA9E7A4CC6FA631D486393
310
921829879BF5D781A373557BCB85E97FB90DB62B558F8795179C15944B051F40AB495CF35451D26A4727654E6D8033BD98EF82F21D91FF8AF2DD9982BCF1643BDD4EB516C9492E368C67C88DED563FC36D5EACF66DFF057C3658BDBFA69DF9578B3DA735B64F18C7F20770A9D45CFCF7FCF563D6456A277DBEF78A02637CA2
310
43B90A490AEAB94F72244481D24819A6C0E59B606BFA4B3025981DBB48EAB701D97BF19C577CC77F2D1B6C55A9EF3C732474C0B727303F625995056C3B02963D9EAC146BE78EC5FCEC7FA999EBC5EACBAAE41B12D27B4D2C0BBA49F244E2ECDC81B76B502F113D8F5EE8FB1BE3111CDD4FC2AA9B844CAB1288B68AB90A7CDC
310
1C166AB0D3DC5310625FCC14E779BFD0709F8890A629C9292B1B2DED31A4B0DA928CEE135085754027E3018A397D4D5427D15BD1330B677DC8934285AC3DF45A9EB68FF8F2B8FC0A509AFEECFD0FF2DE25CC6047F7214B195F07EFEB9A094D800F7BFAE8FED187B78EA8A3A400F115961BCAD1215E47C966530AF0EE8128FE
310
58CEBB996A8964FFA529A046635D9353B0336A8F700DDF46271A024E70B0B37C9DE01847591E54DED53D54202AB947E4076556AC49C6CA5C9E1226B7F1A7B1BE15DEED62C41B91E1B3E9AFAAA735036547343A925075041DF0A9979E893B391F8FCFA6967B3EFB644DCF6E5CEBFAE272625DCC6FAF3FB93793C5F90CE1EF57
310
407342756B10D1C489E8953CD1617E5CEECAD6F4EF8914CE5D5D504E5C3F1F9736DA62CFC11E00BCDDB8CC8A9466349744C1F75EBDA4DF09BA8A9E8C7A7E9991989E20E5DBDD6A6003664ED8F7A04A8DBE0DF6EAD9B9AA858342E47399053949D2C146EDB85DE4B176BB0965FBAC19BD19AA918E27FA50C1D22402E144464C
310
59462568E704B6E71915404CB72B8FF4EDE184DDAF753F284990D2C6926782963815403548A70C657FDEF80D2D9CEAA2AE4C1C76F60BFE74219A06527D6582DF6412526107381E55E353090704D085B52408D0933C4ED159D79BDA71BB4BC506F4831350EB6F979CD22D69BF7AC49B91A2C0A9DDA3D5CA36AD20FC478E37E6
310
1844E2352865EBCB6EA275A652E3836BE04EFB400BF1A2556F515F1FBB35B2AB35BD889C744FFA1004B5544B121E57F70215746DD2F5E2C1412B602CBF19455AC6C8E5E9922C4E01E65215385004546899059180EAFCF7A707CE7017CD8CDB0410789AB32C63B91E5CEBBBACB17AC6CD347A022D5075FD106377347AAABA7E
310
7D11590744509B44E205134DC1290F06580320F78E537D3D73540E06CB970B431F185308AD40BBD794D6D77003C5A36E8EAA54BA64597CD8F83BD552A080A365F7FF06504B0304140006080000CC70623B000000000000000000000000350000006662782F39464131463745442D413632322D343644302D413938332D3331
310
353338454246344243312F76657274696365732E62696E504B0304140006080800CC70623BF270F1330600000004000000360000006662782F39464131463745442D413632322D343644302D413938332D3331353338454246344243312F747269616E676C65732E62696E636660600000504B0304140006080000CC70623B
310
000000000000000000000000370000006662782F39464131463745442D413632322D343644302D413938332D3331353338454246344243312F617474726962757465732E62696E504B0304140006080800CC70623B08DA0BD19000000041010000360000006662782F39464131463745442D413632322D343644302D413938
310
332D3331353338454246344243312F6469726563746F72792E786D6C858F410AC3201045AF22B36F53E9A60B35CBEEBAE80D244E44489C6234F4F835464A48035D0DF398FF9F8AF63D0E6CC63039F212F8F9020C7D47C6792B21C5FE7403D62A1188E2E60C98D7234A5830286103A55745067B9D86B8A3CF9C7F90C11DE607
310
FB144396D7B6A82D282E9A152AD114D5EF2CB866EEE831B8EEA07A7BB5A8D7D61A2BAAEB7FD5F70921FF497D00504B0304140006080800CC70623B0D6EF93BFE000000A00100003B0000006662782F39464131463745442D413632322D343644302D413938332D3331353338454246344243312F7265736F75726365732F63
310
6F72652E786D6C8D50596E833010BD0A9ADFCA60B334011947A8694ED00B586642AC041B79A97AFC9A40A5F6AF3F33A3B7689E1E3F7DCD8FEC139DD7D6F4C0720A191A65476DA61E62B892236427C19DB5E1970C322367EC618541F0C9D9B8EC90B226A009093576C41D94DE63804C3DD2D18357379C652E63480A7FCF17A9
310
EE72C29CE5894E3AC17D702940B63D59270887DE46A7D0F36263058F518FBB468FE9A7BE6A7420864373B8D4873369AA8691FA421B3294352543C5CAF65C0F6FEF43CB8BD52C78D0F34F46E550061C419494B6843142CB0F5677F4B52BEB177AEC28E5C52AFF638ACBF84F53D42654E51E77B379102C05791282176B5F693D
310
CB4C7BED567C03504B010214000A0000080000CC70623B3DEE336E79000000790000001B00000000000000000000000000000000006175746F6465736B2D64657369676E2D7061636B6167652E786D6C504B01021400140006080800CC70623BD486FD9CA0000000F40000001300000000000000000000000000B20000005B
310
436F6E74656E745F54797065735D2E786D6C504B01021400140006080800CC70623B1EC5D7A3EB0000007C010000080000000000000000000000000083010000636F72652E786D6C504B01021400140006080800CC70623B55019EA25F0000007C000000070000000000000000000000000094020000636E782E786D6C504B
310
01021400140006080800CC70623B8C9102E971010000D40300000C00000000000000000000000000180300006662782F636F72652E786D6C504B01021400140006080800CC70623BFFEA85907E0000009D0000000B00000000000000000000000000B30400006662782F636E782E786D6C504B01021400140006080800CC70
310
623B4FEEA4082C0100001202000031000000000000000000000000005A0500006662782F39464131463745442D413632322D343644302D413938332D3331353338454246344243312F636F72652E786D6C504B01021400140006080800CC70623BAD7543B64E010000330300003000000000000000000000000000D5060000
310
6662782F39464131463745442D413632322D343644302D413938332D3331353338454246344243312F636E782E786D6C504B01021400140006080800CC70623B16AB87BA640500003C1000003400000000000000000000000000710800006662782F39464131463745442D413632322D343644302D413938332D3331353338
310
454246344243312F6F626A656374732E786D6C504B01021400140006080000CC70623B0000000000000000000000003500000000000000000000000000270E00006662782F39464131463745442D413632322D343644302D413938332D3331353338454246344243312F76657274696365732E62696E504B01021400140006
310
080800CC70623BF270F133060000000400000036000000000000000000000000007A0E00006662782F39464131463745442D413632322D343644302D413938332D3331353338454246344243312F747269616E676C65732E62696E504B01021400140006080000CC70623B0000000000000000000000003700000000000000
310
000000000000D40E00006662782F39464131463745442D413632322D343644302D413938332D3331353338454246344243312F617474726962757465732E62696E504B01021400140006080800CC70623B08DA0BD190000000410100003600000000000000000000000000290F00006662782F39464131463745442D413632
310
322D343644302D413938332D3331353338454246344243312F6469726563746F72792E786D6C504B01021400140006080800CC70623B0D6EF93BFE000000A00100003B000000000000000000000000000D1000006662782F39464131463745442D413632322D343644302D413938332D3331353338454246344243312F7265
310
736F75726365732F636F72652E786D6C504B0506000000000E000E0080040000641100000000
  0
XRECORD
  5
12287
102
{ACAD_REACTORS
330
173
102
}
330
173
100
AcDbXrecord
280
     1
102
MATERIAL
148
0.0
149
0.0
149
0.0
 93
        0
 94
       63
282
     0
 72
     1
 77
     1
171
     1
175
     1
179
     1
273
     0
  0
XRECORD
  5
175
102
{ACAD_REACTORS
330
173
102
}
330
173
100
AcDbXrecord
280
     1
270
     1
271
     1
  0
XRECORD
  5
174
102
{ACAD_REACTORS
330
173
102
}
330
173
100
AcDbXrecord
280
     1
270
     1
271
     1
  0
XRECORD
  5
1FB
102
{ACAD_REACTORS
330
173
102
}
330
173
100
AcDbXrecord
280
     1
 70
     0
 90
1673772943
  1
ECE7A1D2-D628-4531-984C-D00F80459256
310
504B03040A0000080000CC70623B3DEE336E79000000790000001B0000006175746F6465736B2D64657369676E2D7061636B6167652E786D6C3C3F786D6C2076657273696F6E3D22312E302220656E636F64696E673D227574662D3822203F3E3C666F726D6174733E3C666F726D61743E687474703A2F2F736368656D612E
310
6175746F6465736B2E636F6D2F64657369676E2D7061636B6167652F323030393C2F666F726D61743E3C2F666F726D6174733E504B0304140006080800CC70623BD486FD9CA0000000F4000000130000005B436F6E74656E745F54797065735D2E786D6C7D8EC10E82300C865F65E91D8A1E8C310C0EEA1BF002731658846E
310
D98AC1B77784ABF1D8FE5FBFBF75BBCE937A534CCEB38643598122B6FEE978D0B0485F9C41B54DDD7D022595594E1A469170414C76A4D9A4D207E29CF43ECE46F218070CC6BECC4078ACAA135ACF422C856C0E68EA1BF5669944DDD7BCDE7B1F8E415D77AECB980613C2E4AC91FC167A2B244592486606FC29C8FD7F045B9A
310
EF7053A7E60B504B0304140006080800CC70623BD9DDAED0EC0000007C01000008000000636F72652E786D6C8D90416EC3201045AF82665B61836D9CD8C2444DD39CA01740405C94182C03558F5F9C3852BBEB6A467FFE9B197D7EF89E6EE8CB2CC17A37002D0820E394D7D68D03A478C17B4007C117EFE32F1B20272733C0
310
2A83E0E3E2D3BC49CABB685CCCAAF3DA6CA20CC14440EA969B0182FA34932C648AD911AEC52CD5558EA6A0CF2EC329598D1E47ACCEFBECC59A050463A7EA5833865FEBDD0E37353BE3EE8DBDE3F6786A48D375FBF6CC78B9C282473B3DEFABC5C86834888A900E538A49F5419B9EB47DD5BC907D4F082F57FB1F28CDFA9F50
310
B22ED6D5F6EE030B20687EE43E10BC5CB3C8E51E54AE6B6EE207504B0304140006080800CC70623B55019EA25F0000007C00000007000000636E782E786D6C4DCB3B0E80201045D1AD90E915ED2CF8AC45050C11660C8261F98AB1B07AC9C97D42D718D865D3E909258CFD00CCE24AC6E326A164D74DC0B4128928FF326038
310
472BA13128B1252AC747C6BAB984FC68F0B87FE8960A5C09FE86CFB69FBA01504B0304140006080800CC70623BA24EB22D72010000D40300000C0000006662782F636F72652E786D6CC5535B6E833010BC8AE5DF0A6C5E49888CA3A6694ED00B38E05014B091B1518EDFE511A5A9D228FD2A1F60CDEC7A67C6986DCE4D8D7A
310
69BA4AAB0C073EC548AA5C17952A33ECECD15B61B4E1CC686DBF9561A44423333CC098B3D268D7CE50AE9595CA02AA74216750749DB418E5352C32DCE59FB211BE70162ABA93DF8AFC244AE9073ED050C759670D0840D390E18DF9F1706664C23973AE2A66B62A605A75ACA4C13C4976E1364A12EF355A2EBD384AF65EFA96
310
BC7B8BED2EA6719AAE16FB8491A199335B351775B991C2CA02F390D2D40B028F861F41BCA68B7518BFD0D59A524686F29B26D7164F36B94AD9289CE54E6D1DE6010819891F6E21228B3AD1831EC219194284CF98F06DD01008846CC5A1BEF83801D4CBDC6A1303536877A57A513B0953A94FC707FDBE6064EA84A9E3E6E0FA
310
EE8CF0E9198F7784A316AA0413C2C2F2E0ECA0934D1AE6D05A69BCDE9E91D2A611F573361E38FC1375157F5752AE6B6DFE4B11990F88CCBF0719EE23FF02504B0304140006080800CC70623B408A7D3B7C0000009D0000000B0000006662782F636E782E786D6C4DCCD10A83201886E15B91FFDC552A92A0064DBC8F581632
310
D3703A76F9ABD1C18E3E78F878E5F0D9027ABBFCF2292AE86E2D20171F69F6715550CB827B40839639A5F2770314A7CD293819B45C73AAFB45B35BA61ACAA1C1C7E7855C58C15BC331339661262CC762340413D68D77DA5B42298546CBE6573AF60CEB2F504B0304140006080800CC70623B449FB9BD290100001202000031
310
0000006662782F36394639363044362D344446342D343946362D394244322D3234314243333846323333332F636F72652E786D6C8D515B6EC32010BC0AE22B55850D98B871848994463E412FE002495162B07854397EA176A4F62F3F2C9A9D991D587EB84F37F0AD7D30CEF6905418026DA553C65E7A98E219ED203808EE9D
310
8B7F6810D871D23D2C3014FCE25D9A57483A1BB58D19B54EE9151C43D0110279CB971E06F9A5A7B11A53CC8C70ADE6515EC78BAE4895DB992778883E0700CB907242D17643D7E2538BD869608875438BBAE38922CAC8F1BDD90DB4691A5E2F42C153326A951B95E398B3D1FE599322163C9AE9115F7A3D46ADA0A018778810
310
84E907617BDCEE297BC5BB3DC6BC2EF47FA234AB2745C9D8D8D035EE220B50105E2F0DC1954B9FB747187D9F9D8FA0CCDB042D5FA0C015C65B42DF78BD10F3F3B363CB56C7109DCFDFBBB97E662ED92EB62D13BC2E1BCAE5777DB9966D8A1F504B0304140006080800CC70623BAD7543B64E01000033030000300000006662
310
782F36394639363044362D344446342D343946362D394244322D3234314243333846323333332F636E782E786D6CD593CD6EC32010845F0571AD6CE3D48AD20813A9873E410FBD12D82434182C7EAAE6EDBB2424CD25871E7B41D6EC30B3FA84F9E67BB2E40B4234DE8DB46F1925E094D7C6ED479AD3AE5951B2113C789FEE
310
6C943839C1488B4C05DF079FE72A69D8C96C13AAD6B8631503449F83828872B949AC57D26200B826A308D316B4064D6E46FCDA41C05550DC9E483A00797BFD207EFB092A45DE9514C1BBD22178396BD39D891265658C238DEA00936C654E5E433CB65A26D9F6EDB5EBC14EBF49A45CB856E66048291F6939A9A81BB5C89177
310
38143CA680F4AA299D66A042CEB3354A2684DC9D8D178FE0D9B8B41CAAD720F880EE7EF93C0C18769E099ECC04D5A102C8049A8A05632F4DDF376CF1DE0F6BB65C2F8627B65A33C6BB62177CEBBDAD973006829F89F22E814B54F4BC2BE347F8AA8F681390B50FA73F804400B5F542E796F19FF974E7F78DB802FE05E20750
310
4B0304140006080800CC70623B8D05915C650500003B100000340000006662782F36394639363044362D344446342D343946362D394244322D3234314243333846323333332F6F626A656374732E786D6CAD575B6FA33814FE2B887D06429276DA1565D4266D158D3A339A6846FB502932E050B66023DB74D2FDF5FB190C01
310
9276B2973C046C8ECFF53B17071F77456EBD502133CEAE6CDF9DD81665314F32965ED995DA3A17B6F5310C04E7AA47665B8C14F4CAD6DB7618A48257A5D94AE89654B91AEDDEDDFC61C998326A5B714EA4BCB265FC440BE2924AF184CA6737218AB8E976E7FA6E4338649B0A523E8D98964450A6A029F619B8588D52FE7039
310
B1BD30F0F4F730D0FF866AF6369557DB33949F31A9088B0F848DD8CCFCF9F2767A76E99CCDE733677E3EF59D9BBB9BA5E37F984D16E78BC5E5F5ED25044B25C0C96822E8D60EEFE11B91C581D77CEA34368A1F5329E68CD1B8B61F16D63A1B8E092D294B10C78C4A48EB593D192E7DED9BDEE7995E1B91FDEDD3ACEA9FE831
310
6A756F9F7D4D79F4274C90A7A04248AA51D5F8C718DAE06FB2F75AC4796EBE65D22A88A22223B995679120E2D50E41AA49C260C046A35368846B0BECD0DFF3EBEB8AD4F835768F69B9ADF25C43D30E6B646F807FAA64AD59F61715C7A54127C4AACA98BA3006A9D792DAE165E0D59B61A01FB3A9F9D838D2DAE62445C86166
310
F37564E842E7DE6A69879FEEA2DD5AE7E371E1A5E025154AC307D06A03D73EB5978C58FFA4C8E9033066E0F3BD53BEC1F39F91BE7B55103791EDE6BBB991A2046172CB4581D8B893FA674DDA17A77B3B7C413D1B511FD2743BFF8A38F03A658705E3ADF8015C3A3417FF3D7E439FF591DA0B5F18BC20C1B8981957AE6392A3
310
F43C640C01D1A0B4728E2DD4F26DB4B3C3152A252A3B4E913CEC1C72F012782FF88EFF8637AA552DBEF76408E8A8DE9E50F9E1CB3A2DA0DB1B6039A893B56063DC5B3E3FFB5F72E67AB9FEB4AEC496C4F4C1149625DD662C53E89D7BF0F6151A046260D1337DFDC94502430F83B0EE07A130A224BCAD7DAE1D9FB6CD422FF6
310
920702629C4BB9AE79C12F243C6432A6794E18E5552BA56B431AAB5D91317302B2B071E86C3A42B1A02F999E24061403B5D0EB639195DA655DD3EBEAB4FB862DDF579F014AD0E73C22F99E28DA57FB98E75C6CA2D74D53086D600F4786E0FE3144B771A8A7B900F03594DB8A633CBC49B2EDB69228BB479CF863B5E807AAAB
310
23872F6DFEB4129B949CA33823F58830E86D65621E10047D9DB34D862E8EAC3C2ABC2F7B2C40D67CDFE01F5545B92105AF983AC54D93D69E56FB8E797F88913F898A9FEC705D3F9D1B54EC8426FB500D40A03BD0119B06E1B95DDC7EB8F6975367793EBD70E66733DFB9BC982F9CE564727731999F5D4ECFCE3B8D6A4DC2A0
310
6D50FD148437D110834A64C6CDDF57FBACB5C307A2A477DFE4939736CFEF2B175371E0E10CF0DD1D5C15654E0BCA14D1E87DD02FF93782A162C0A3D95F1524A52770F972BF1EE9809D13CE7DD599467F8ECE9ADD85CE85A34CD45355448C64F9E8A031DC2D596ACC6E5DD93D9B82DE2EF5CAF81363A8E47996A0DE24564A79
310
4115AACE09C55E14540231FDA13C319787134EBF34E3A022514E5B4D9E0826E25C02D5805B15ABE1BEF51B26383D445DD9E875EE33FE4C22DA16427D65A3BCA92CA6D28DD01DF5DC53330704308475351050232CCD31583787BA75774AFB06E5070DD0C8EF484E19968C5D83BA5B90B244D31E54D55A372320FE4786B7EA58
310
44E135AA5467CB7EA333A61683CC6A8C3257034C10CF46F40EF9F5BE59BE5BD30C3C72D235E95D10345C1D45445A5F0BB47E46A5EBE5570F9380B5FA629579952296A773720405982B9DE04011506178964401AA8BDF1FBF0A8EAB6861DD6580C0E38217056766716DAEB2D6FA0917D3E4116581EADB879C4E7CFFB11EFACD
310
3D641311495D92C8676CB409A72D18610D803CE8A626049E8EC1887CB5B44CC39883690DDA8399B4B9855B481E7D71D4A9D22F96E5BB73BF5793020C02137BF837504B0304140006080000CC70623B000000000000000000000000350000006662782F36394639363044362D344446342D343946362D394244322D32343142
310
43333846323333332F76657274696365732E62696E504B0304140006080800CC70623BF270F1330600000004000000360000006662782F36394639363044362D344446342D343946362D394244322D3234314243333846323333332F747269616E676C65732E62696E636660600000504B0304140006080000CC70623B0000
310
00000000000000000000370000006662782F36394639363044362D344446342D343946362D394244322D3234314243333846323333332F617474726962757465732E62696E504B0304140006080800CC70623B08DA0BD19000000041010000360000006662782F36394639363044362D344446342D343946362D394244322D
310
3234314243333846323333332F6469726563746F72792E786D6C858F410AC3201045AF22B36F53E9A60B35CBEEBAE80D244E44489C6234F4F835464A48035D0DF398FF9F8AF63D0E6CC63039F212F8F9020C7D47C6792B21C5FE7403D62A1188E2E60C98D7234A5830286103A55745067B9D86B8A3CF9C7F90C11DE607FB14
310
4396D7B6A82D282E9A152AD114D5EF2CB866EEE831B8EEA07A7BB5A8D7D61A2BAAEB7FD5F70921FF497D00504B0304140006080800CC70623BCA768048FE000000A00100003B0000006662782F36394639363044362D344446342D343946362D394244322D3234314243333846323333332F7265736F75726365732F636F72
310
652E786D6C8D50596E833010BD0A9ADFCA60D600328E9AA639412F609909B1126CE4A5EAF16B0295DABFFECC8CDEA2797AECF8353F924FB44E193D409E5248504B332A3D0D10FC95B4901C39B3C6F85F3248B49871801506CE266BC2B243D2688FDA47549B11775038871E12F988C7004EDE7016A9083E2ADC3D5D84BC8B09
310
D33C8D74D471E6BC8D0192EDC93A815B742658898E651BCB59086ADC356A8C3FD555A1055ED7E7E254D615792D0F075295F585746FF53B694EE78A565DD736979A65AB9933AFE69F8CD2A2F038022F28ED489E135A7CE4554F9BBEA85E68DB53CAB255FEC71496F19FA6A0B42F8B3DEE6673C0F318E4497096AD7DC5F52C33
310
EEB55BFE0D504B010214000A0000080000CC70623B3DEE336E79000000790000001B00000000000000000000000000000000006175746F6465736B2D64657369676E2D7061636B6167652E786D6C504B01021400140006080800CC70623BD486FD9CA0000000F40000001300000000000000000000000000B20000005B436F
310
6E74656E745F54797065735D2E786D6C504B01021400140006080800CC70623BD9DDAED0EC0000007C010000080000000000000000000000000083010000636F72652E786D6C504B01021400140006080800CC70623B55019EA25F0000007C000000070000000000000000000000000095020000636E782E786D6C504B0102
310
1400140006080800CC70623BA24EB22D72010000D40300000C00000000000000000000000000190300006662782F636F72652E786D6C504B01021400140006080800CC70623B408A7D3B7C0000009D0000000B00000000000000000000000000B50400006662782F636E782E786D6C504B01021400140006080800CC70623B
310
449FB9BD290100001202000031000000000000000000000000005A0500006662782F36394639363044362D344446342D343946362D394244322D3234314243333846323333332F636F72652E786D6C504B01021400140006080800CC70623BAD7543B64E010000330300003000000000000000000000000000D20600006662
310
782F36394639363044362D344446342D343946362D394244322D3234314243333846323333332F636E782E786D6C504B01021400140006080800CC70623B8D05915C650500003B10000034000000000000000000000000006E0800006662782F36394639363044362D344446342D343946362D394244322D32343142433338
310
46323333332F6F626A656374732E786D6C504B01021400140006080000CC70623B0000000000000000000000003500000000000000000000000000250E00006662782F36394639363044362D344446342D343946362D394244322D3234314243333846323333332F76657274696365732E62696E504B010214001400060808
310
00CC70623BF270F13306000000040000003600000000000000000000000000780E00006662782F36394639363044362D344446342D343946362D394244322D3234314243333846323333332F747269616E676C65732E62696E504B01021400140006080000CC70623B00000000000000000000000037000000000000000000
310
00000000D20E00006662782F36394639363044362D344446342D343946362D394244322D3234314243333846323333332F617474726962757465732E62696E504B01021400140006080800CC70623B08DA0BD190000000410100003600000000000000000000000000270F00006662782F36394639363044362D344446342D
310
343946362D394244322D3234314243333846323333332F6469726563746F72792E786D6C504B01021400140006080800CC70623BCA768048FE000000A00100003B000000000000000000000000000B1000006662782F36394639363044362D344446342D343946362D394244322D3234314243333846323333332F7265736F
310
75726365732F636F72652E786D6C504B0506000000000E000E0080040000621100000000
  0
XRECORD
  5
176
102
{ACAD_REACTORS
330
173
102
}
330
173
100
AcDbXrecord
280
     1
270
     1
271
     1
  0
XRECORD
  5
177
102
{ACAD_REACTORS
330
173
102
}
330
173
100
AcDbXrecord
280
     1
270
     1
271
     1
  0
XRECORD
  5
122A9
102
{ACAD_REACTORS
330
122A8
102
}
330
122A8
100
AcDbXrecord
280
     1
102
ACAD_ROUNDTRIP_2012_MLEADER_STYLE
298
     1
  0
XRECORD
  5
122BB
102
{ACAD_REACTORS
330
122BA
102
}
330
122BA
100
AcDbXrecord
280
     1
102
DISPLAYNAME
  1
Metric50
102
FLAGS
 90
        0
  0
CELLSTYLEMAP
  5
1227B
102
{ACAD_REACTORS
330
162
102
}
330
162
100
AcDbCellStyleMap
 90
        3
300
CELLSTYLE
  1
TABLEFORMAT_BEGIN
 90
        5
170
     1
 91
        0
 92
    32768
 62
   257
 93
        1
300
CONTENTFORMAT
  1
CONTENTFORMAT_BEGIN
 90
        0
 91
        0
 92
      512
 93
        0
300

 40
0.0
140
1.0
 94
        5
 62
     0
340
11
144
6.0
309
CONTENTFORMAT_END
171
     1
301
MARGIN
  1
CELLMARGIN_BEGIN
 40
1.5
 40
1.5
 40
1.5
 40
1.5
 40
4.5
 40
4.5
309
CELLMARGIN_END
 94
        6
 95
        1
302
GRIDFORMAT
  1
GRIDFORMAT_BEGIN
 90
        0
 91
        1
 62
     0
 92
       -2
340
14
 93
        0
 40
1.125
309
GRIDFORMAT_END
 95
        2
302
GRIDFORMAT
  1
GRIDFORMAT_BEGIN
 90
        0
 91
        1
 62
     0
 92
       -2
340
14
 93
        0
 40
1.125
309
GRIDFORMAT_END
 95
        4
302
GRIDFORMAT
  1
GRIDFORMAT_BEGIN
 90
        0
 91
        1
 62
     0
 92
       -2
340
14
 93
        0
 40
1.125
309
GRIDFORMAT_END
 95
        8
302
GRIDFORMAT
  1
GRIDFORMAT_BEGIN
 90
        0
 91
        1
 62
     0
 92
       -2
340
14
 93
        0
 40
1.125
309
GRIDFORMAT_END
 95
       16
302
GRIDFORMAT
  1
GRIDFORMAT_BEGIN
 90
        0
 91
        1
 62
     0
 92
       -2
340
14
 93
        0
 40
1.125
309
GRIDFORMAT_END
 95
       32
302
GRIDFORMAT
  1
GRIDFORMAT_BEGIN
 90
        0
 91
        1
 62
     0
 92
       -2
340
14
 93
        0
 40
1.125
309
GRIDFORMAT_END
309
TABLEFORMAT_END
  1
CELLSTYLE_BEGIN
 90
        1
 91
        1
300
_TITLE
309
CELLSTYLE_END
300
CELLSTYLE
  1
TABLEFORMAT_BEGIN
 90
        5
170
     1
 91
        0
 92
        0
 62
   257
 93
        1
300
CONTENTFORMAT
  1
CONTENTFORMAT_BEGIN
 90
        0
 91
        0
 92
      512
 93
        0
300

 40
0.0
140
1.0
 94
        5
 62
     0
340
11
144
4.5
309
CONTENTFORMAT_END
171
     1
301
MARGIN
  1
CELLMARGIN_BEGIN
 40
1.5
 40
1.5
 40
1.5
 40
1.5
 40
4.5
 40
4.5
309
CELLMARGIN_END
 94
        6
 95
        1
302
GRIDFORMAT
  1
GRIDFORMAT_BEGIN
 90
        0
 91
        1
 62
     0
 92
       -2
340
14
 93
        0
 40
1.125
309
GRIDFORMAT_END
 95
        2
302
GRIDFORMAT
  1
GRIDFORMAT_BEGIN
 90
        0
 91
        1
 62
     0
 92
       -2
340
14
 93
        0
 40
1.125
309
GRIDFORMAT_END
 95
        4
302
GRIDFORMAT
  1
GRIDFORMAT_BEGIN
 90
        0
 91
        1
 62
     0
 92
       -2
340
14
 93
        0
 40
1.125
309
GRIDFORMAT_END
 95
        8
302
GRIDFORMAT
  1
GRIDFORMAT_BEGIN
 90
        0
 91
        1
 62
     0
 92
       -2
340
14
 93
        0
 40
1.125
309
GRIDFORMAT_END
 95
       16
302
GRIDFORMAT
  1
GRIDFORMAT_BEGIN
 90
        0
 91
        1
 62
     0
 92
       -2
340
14
 93
        0
 40
1.125
309
GRIDFORMAT_END
 95
       32
302
GRIDFORMAT
  1
GRIDFORMAT_BEGIN
 90
        0
 91
        1
 62
     0
 92
       -2
340
14
 93
        0
 40
1.125
309
GRIDFORMAT_END
309
TABLEFORMAT_END
  1
CELLSTYLE_BEGIN
 90
        2
 91
        1
300
_HEADER
309
CELLSTYLE_END
300
CELLSTYLE
  1
TABLEFORMAT_BEGIN
 90
        5
170
     1
 91
        0
 92
        0
 62
   257
 93
        1
300
CONTENTFORMAT
  1
CONTENTFORMAT_BEGIN
 90
        0
 91
        0
 92
      512
 93
        0
300

 40
0.0
140
1.0
 94
        2
 62
     0
340
11
144
4.5
309
CONTENTFORMAT_END
171
     1
301
MARGIN
  1
CELLMARGIN_BEGIN
 40
1.5
 40
1.5
 40
1.5
 40
1.5
 40
4.5
 40
4.5
309
CELLMARGIN_END
 94
        6
 95
        1
302
GRIDFORMAT
  1
GRIDFORMAT_BEGIN
 90
        0
 91
        1
 62
     0
 92
       -2
340
14
 93
        0
 40
1.125
309
GRIDFORMAT_END
 95
        2
302
GRIDFORMAT
  1
GRIDFORMAT_BEGIN
 90
        0
 91
        1
 62
     0
 92
       -2
340
14
 93
        0
 40
1.125
309
GRIDFORMAT_END
 95
        4
302
GRIDFORMAT
  1
GRIDFORMAT_BEGIN
 90
        0
 91
        1
 62
     0
 92
       -2
340
14
 93
        0
 40
1.125
309
GRIDFORMAT_END
 95
        8
302
GRIDFORMAT
  1
GRIDFORMAT_BEGIN
 90
        0
 91
        1
 62
     0
 92
       -2
340
14
 93
        0
 40
1.125
309
GRIDFORMAT_END
 95
       16
302
GRIDFORMAT
  1
GRIDFORMAT_BEGIN
 90
        0
 91
        1
 62
     0
 92
       -2
340
14
 93
        0
 40
1.125
309
GRIDFORMAT_END
 95
       32
302
GRIDFORMAT
  1
GRIDFORMAT_BEGIN
 90
        0
 91
        1
 62
     0
 92
       -2
340
14
 93
        0
 40
1.125
309
GRIDFORMAT_END
309
TABLEFORMAT_END
  1
CELLSTYLE_BEGIN
 90
        3
 91
        2
300
_DATA
309
CELLSTYLE_END
  0
XRECORD
  5
12280
102
{ACAD_REACTORS
330
162
102
}
330
162
100
AcDbXrecord
280
     1
102
ACAD_ROUNDTRIP_PRE2007_TABLESTYLE
 90
      512
 91
        0
  1

 92
      512
 93
        0
  2

 94
      512
 95
        0
  3

  0
XRECORD
  5
12293
102
{ACAD_REACTORS
330
12292
102
}
330
12292
100
AcDbXrecord
280
     1
102
RTVSPost2010Prop28
280
     1
102
RTVSPost2010PropOp28
 70
     1
102
RTVSPost2010Prop29
280
     1
102
RTVSPost2010PropOp29
 70
     1
102
RTVSPost2010Prop30
280
     0
102
RTVSPost2010PropOp30
 70
     1
102
RTVSPost2010Prop31
280
     0
102
RTVSPost2010PropOp31
 70
     1
102
RTVSPost2010Prop32
280
     0
102
RTVSPost2010PropOp32
 70
     1
102
RTVSPost2010Prop33
280
     0
102
RTVSPost2010PropOp33
 70
     1
102
RTVSPost2010Prop34
280
     0
102
RTVSPost2010PropOp34
 70
     1
102
RTVSPost2010Prop35
280
     0
102
RTVSPost2010PropOp35
 70
     1
102
RTVSPost2010Prop36
280
     0
102
RTVSPost2010PropOp36
 70
     1
102
RTVSPost2010Prop37
 90
       50
102
RTVSPost2010PropOp37
 70
     1
102
RTVSPost2010Prop38
140
0.0
102
RTVSPost2010PropOp38
 70
     1
102
RTVSPost2010Prop39
140
1.0
102
RTVSPost2010PropOp39
 70
     1
102
RTVSPost2010Prop40
 90
        0
102
RTVSPost2010PropOp40
 70
     1
102
RTVSPost2010Prop41ColorIndex
 90
       18
102
RTVSPost2010Prop41ColorRGB
 90
        0
102
RTVSPost2010PropOp41
 70
     1
102
RTVSPost2010Prop42
 90
       50
102
RTVSPost2010PropOp42
 70
     1
102
RTVSPost2010Prop43
 90
        3
102
RTVSPost2010PropOp43
 70
     1
102
RTVSPost2010Prop44ColorIndex
 90
        5
102
RTVSPost2010Prop44ColorRGB
 90
      255
102
RTVSPost2010PropOp44
 70
     1
102
RTVSPost2010Prop45
280
     0
102
RTVSPost2010PropOp45
 70
     1
102
RTVSPost2010Prop46
 90
       50
102
RTVSPost2010PropOp46
 70
     1
102
RTVSPost2010Prop47
 90
       50
102
RTVSPost2010PropOp47
 70
     1
102
RTVSPost2010Prop48
 90
       50
102
RTVSPost2010PropOp48
 70
     1
102
RTVSPost2010Prop49
280
     0
102
RTVSPost2010PropOp49
 70
     1
102
RTVSPost2010Prop50
 90
       50
102
RTVSPost2010PropOp50
 70
     1
102
RTVSPost2010Prop51ColorIndex
 90
      256
102
RTVSPost2010Prop51ColorRGB
 90
-16777216
102
RTVSPost2010PropOp51
 70
     0
102
RTVSPost2010Prop52
140
1.0
102
RTVSPost2010PropOp52
 70
     0
102
RTVSPost2010Prop53
 90
        2
102
RTVSPost2010PropOp53
 70
     1
102
RTVSPost2010Prop54
  1
strokes_ogs.tif
102
RTVSPost2010PropOp54
 70
     1
102
RTVSPost2010Prop55
280
     0
102
RTVSPost2010PropOp55
 70
     1
102
RTVSPost2010Prop56
140
1.0
102
RTVSPost2010PropOp56
 70
     1
102
RTVSPost2010Prop57
140
1.0
102
RTVSPost2010PropOp57
 70
     1
102
RTVSPropertyOp0
 70
     1
102
RTVSPropertyOp1
 70
     1
102
RTVSPropertyOp2
 70
     1
102
RTVSPropertyOp3
 70
     1
102
RTVSPropertyOp4
 70
     1
102
RTVSPropertyOp5
 70
     1
102
RTVSPropertyOp6
 70
     1
102
RTVSPropertyOp7
 70
     1
102
RTVSPropertyOp8
 70
     1
102
RTVSPropertyOp9
 70
     1
102
RTVSPropertyOp10
 70
     1
102
RTVSPropertyOp11
 70
     1
102
RTVSPropertyOp12
 70
     1
102
RTVSPropertyOp13
 70
     1
102
RTVSPropertyOp14
 70
     1
102
RTVSPropertyOp15
 70
     1
102
RTVSPropertyOp16
 70
     1
102
RTVSPropertyOp17
 70
     1
102
RTVSPropertyOp18
 70
     1
102
RTVSPropertyOp19
 70
     1
102
RTVSPropertyOp20
 70
     1
102
RTVSPropertyOp21
 70
     1
102
RTVSPropertyOp22
 70
     1
102
RTVSPropertyOp23
 70
     1
102
RTVSPropertyOp24
 70
     1
102
RTVSPropertyOp25
 70
     1
102
RTVSPropertyOp26
 70
     1
102
RTVSPropertyOp27
 70
     1
102
RTVSPropertyOp28
 70
     1
102
RTVSPropertyOp29
 70
     1
102
RTVSPropertyOp30
 70
     1
102
RTVSPropertyOp31
 70
     1
102
RTVSPropertyOp32
 70
     1
102
RTVSPropertyOp33
 70
     1
102
RTVSPropertyOp34
 70
     1
102
RTVSPropertyOp35
 70
     1
102
RTVSPropertyOp36
 70
     1
102
RTVSPropertyOp37
 70
     1
102
RTVSPropertyOp38
 70
     1
102
RTVSPropertyOp39
 70
     1
102
RTVSPropertyOp40
 70
     1
102
RTVSPropertyOp41
 70
     1
102
RTVSPropertyOp42
 70
     1
102
RTVSPropertyOp43
 70
     1
102
RTVSPropertyOp44
 70
     1
102
RTVSPropertyOp45
 70
     1
102
RTVSPropertyOp46
 70
     1
102
RTVSPropertyOp47
 70
     1
102
RTVSPropertyOp48
 70
     1
102
RTVSPropertyOp49
 70
     1
102
RTVSPropertyOp50
 70
     1
102
RTVSPropertyOp51
 70
     0
102
RTVSPropertyOp52
 70
     0
102
RTVSPropertyOp53
 70
     1
102
RTVSPropertyOp54
 70
     1
102
RTVSPropertyOp55
 70
     1
102
RTVSPropertyOp56
 70
     1
102
RTVSPropertyOp57
 70
     1
102
RTVSPropertyOp58
 70
     1
102
RTVSPropertyOp59
 70
     1
102
RTVSPropertyOp60
 70
     1
102
RTVSPropertyOp61
 70
     1
102
RTVSPropertyOp62
 70
     1
  0
XRECORD
  5
12291
102
{ACAD_REACTORS
330
12290
102
}
330
12290
100
AcDbXrecord
280
     1
102
RTVSPost2010Prop28
280
     0
102
RTVSPost2010PropOp28
 70
     1
102
RTVSPost2010Prop29
280
     1
102
RTVSPost2010PropOp29
 70
     1
102
RTVSPost2010Prop30
280
     1
102
RTVSPost2010PropOp30
 70
     1
102
RTVSPost2010Prop31
280
     0
102
RTVSPost2010PropOp31
 70
     1
102
RTVSPost2010Prop32
280
     0
102
RTVSPost2010PropOp32
 70
     1
102
RTVSPost2010Prop33
280
     0
102
RTVSPost2010PropOp33
 70
     1
102
RTVSPost2010Prop34
280
     0
102
RTVSPost2010PropOp34
 70
     1
102
RTVSPost2010Prop35
280
     0
102
RTVSPost2010PropOp35
 70
     1
102
RTVSPost2010Prop36
280
     0
102
RTVSPost2010PropOp36
 70
     1
102
RTVSPost2010Prop37
 90
       50
102
RTVSPost2010PropOp37
 70
     1
102
RTVSPost2010Prop38
140
0.0
102
RTVSPost2010PropOp38
 70
     1
102
RTVSPost2010Prop39
140
1.0
102
RTVSPost2010PropOp39
 70
     1
102
RTVSPost2010Prop40
 90
        0
102
RTVSPost2010PropOp40
 70
     1
102
RTVSPost2010Prop41ColorIndex
 90
       18
102
RTVSPost2010Prop41ColorRGB
 90
        0
102
RTVSPost2010PropOp41
 70
     1
102
RTVSPost2010Prop42
 90
       50
102
RTVSPost2010PropOp42
 70
     1
102
RTVSPost2010Prop43
 90
        3
102
RTVSPost2010PropOp43
 70
     1
102
RTVSPost2010Prop44ColorIndex
 90
        5
102
RTVSPost2010Prop44ColorRGB
 90
      255
102
RTVSPost2010PropOp44
 70
     1
102
RTVSPost2010Prop45
280
     0
102
RTVSPost2010PropOp45
 70
     1
102
RTVSPost2010Prop46
 90
       50
102
RTVSPost2010PropOp46
 70
     1
102
RTVSPost2010Prop47
 90
       50
102
RTVSPost2010PropOp47
 70
     1
102
RTVSPost2010Prop48
 90
       50
102
RTVSPost2010PropOp48
 70
     1
102
RTVSPost2010Prop49
280
     0
102
RTVSPost2010PropOp49
 70
     1
102
RTVSPost2010Prop50
 90
       50
102
RTVSPost2010PropOp50
 70
     1
102
RTVSPost2010Prop51ColorIndex
 90
      256
102
RTVSPost2010Prop51ColorRGB
 90
-16777216
102
RTVSPost2010PropOp51
 70
     0
102
RTVSPost2010Prop52
140
1.0
102
RTVSPost2010PropOp52
 70
     0
102
RTVSPost2010Prop53
 90
        2
102
RTVSPost2010PropOp53
 70
     1
102
RTVSPost2010Prop54
  1
strokes_ogs.tif
102
RTVSPost2010PropOp54
 70
     1
102
RTVSPost2010Prop55
280
     0
102
RTVSPost2010PropOp55
 70
     1
102
RTVSPost2010Prop56
140
1.0
102
RTVSPost2010PropOp56
 70
     1
102
RTVSPost2010Prop57
140
1.0
102
RTVSPost2010PropOp57
 70
     1
102
RTVSPropertyOp0
 70
     1
102
RTVSPropertyOp1
 70
     1
102
RTVSPropertyOp2
 70
     1
102
RTVSPropertyOp3
 70
     1
102
RTVSPropertyOp4
 70
     1
102
RTVSPropertyOp5
 70
     1
102
RTVSPropertyOp6
 70
     1
102
RTVSPropertyOp7
 70
     1
102
RTVSPropertyOp8
 70
     1
102
RTVSPropertyOp9
 70
     1
102
RTVSPropertyOp10
 70
     1
102
RTVSPropertyOp11
 70
     1
102
RTVSPropertyOp12
 70
     1
102
RTVSPropertyOp13
 70
     1
102
RTVSPropertyOp14
 70
     1
102
RTVSPropertyOp15
 70
     1
102
RTVSPropertyOp16
 70
     1
102
RTVSPropertyOp17
 70
     1
102
RTVSPropertyOp18
 70
     1
102
RTVSPropertyOp19
 70
     1
102
RTVSPropertyOp20
 70
     1
102
RTVSPropertyOp21
 70
     1
102
RTVSPropertyOp22
 70
     1
102
RTVSPropertyOp23
 70
     1
102
RTVSPropertyOp24
 70
     1
102
RTVSPropertyOp25
 70
     1
102
RTVSPropertyOp26
 70
     1
102
RTVSPropertyOp27
 70
     1
102
RTVSPropertyOp28
 70
     1
102
RTVSPropertyOp29
 70
     1
102
RTVSPropertyOp30
 70
     1
102
RTVSPropertyOp31
 70
     1
102
RTVSPropertyOp32
 70
     1
102
RTVSPropertyOp33
 70
     1
102
RTVSPropertyOp34
 70
     1
102
RTVSPropertyOp35
 70
     1
102
RTVSPropertyOp36
 70
     1
102
RTVSPropertyOp37
 70
     1
102
RTVSPropertyOp38
 70
     1
102
RTVSPropertyOp39
 70
     1
102
RTVSPropertyOp40
 70
     1
102
RTVSPropertyOp41
 70
     1
102
RTVSPropertyOp42
 70
     1
102
RTVSPropertyOp43
 70
     1
102
RTVSPropertyOp44
 70
     1
102
RTVSPropertyOp45
 70
     1
102
RTVSPropertyOp46
 70
     1
102
RTVSPropertyOp47
 70
     1
102
RTVSPropertyOp48
 70
     1
102
RTVSPropertyOp49
 70
     1
102
RTVSPropertyOp50
 70
     1
102
RTVSPropertyOp51
 70
     0
102
RTVSPropertyOp52
 70
     0
102
RTVSPropertyOp53
 70
     1
102
RTVSPropertyOp54
 70
     1
102
RTVSPropertyOp55
 70
     1
102
RTVSPropertyOp56
 70
     1
102
RTVSPropertyOp57
 70
     1
102
RTVSPropertyOp58
 70
     1
102
RTVSPropertyOp59
 70
     1
102
RTVSPropertyOp60
 70
     1
102
RTVSPropertyOp61
 70
     1
102
RTVSPropertyOp62
 70
     1
  0
XRECORD
  5
1229F
102
{ACAD_REACTORS
330
1229E
102
}
330
1229E
100
AcDbXrecord
280
     1
102
RTVSPost2010Prop28
280
     0
102
RTVSPost2010PropOp28
 70
     1
102
RTVSPost2010Prop29
280
     1
102
RTVSPost2010PropOp29
 70
     1
102
RTVSPost2010Prop30
280
     1
102
RTVSPost2010PropOp30
 70
     1
102
RTVSPost2010Prop31
280
     0
102
RTVSPost2010PropOp31
 70
     1
102
RTVSPost2010Prop32
280
     0
102
RTVSPost2010PropOp32
 70
     1
102
RTVSPost2010Prop33
280
     0
102
RTVSPost2010PropOp33
 70
     1
102
RTVSPost2010Prop34
280
     0
102
RTVSPost2010PropOp34
 70
     1
102
RTVSPost2010Prop35
280
     0
102
RTVSPost2010PropOp35
 70
     1
102
RTVSPost2010Prop36
280
     0
102
RTVSPost2010PropOp36
 70
     1
102
RTVSPost2010Prop37
 90
       50
102
RTVSPost2010PropOp37
 70
     1
102
RTVSPost2010Prop38
140
0.0
102
RTVSPost2010PropOp38
 70
     1
102
RTVSPost2010Prop39
140
1.0
102
RTVSPost2010PropOp39
 70
     1
102
RTVSPost2010Prop40
 90
        0
102
RTVSPost2010PropOp40
 70
     1
102
RTVSPost2010Prop41ColorIndex
 90
       18
102
RTVSPost2010Prop41ColorRGB
 90
        0
102
RTVSPost2010PropOp41
 70
     1
102
RTVSPost2010Prop42
 90
       50
102
RTVSPost2010PropOp42
 70
     1
102
RTVSPost2010Prop43
 90
        3
102
RTVSPost2010PropOp43
 70
     1
102
RTVSPost2010Prop44ColorIndex
 90
        5
102
RTVSPost2010Prop44ColorRGB
 90
      255
102
RTVSPost2010PropOp44
 70
     1
102
RTVSPost2010Prop45
280
     0
102
RTVSPost2010PropOp45
 70
     1
102
RTVSPost2010Prop46
 90
       50
102
RTVSPost2010PropOp46
 70
     1
102
RTVSPost2010Prop47
 90
       50
102
RTVSPost2010PropOp47
 70
     1
102
RTVSPost2010Prop48
 90
       50
102
RTVSPost2010PropOp48
 70
     1
102
RTVSPost2010Prop49
280
     0
102
RTVSPost2010PropOp49
 70
     1
102
RTVSPost2010Prop50
 90
       50
102
RTVSPost2010PropOp50
 70
     1
102
RTVSPost2010Prop51ColorIndex
 90
      256
102
RTVSPost2010Prop51ColorRGB
 90
-16777216
102
RTVSPost2010PropOp51
 70
     0
102
RTVSPost2010Prop52
140
1.0
102
RTVSPost2010PropOp52
 70
     0
102
RTVSPost2010Prop53
 90
        2
102
RTVSPost2010PropOp53
 70
     1
102
RTVSPost2010Prop54
  1
strokes_ogs.tif
102
RTVSPost2010PropOp54
 70
     1
102
RTVSPost2010Prop55
280
     0
102
RTVSPost2010PropOp55
 70
     1
102
RTVSPost2010Prop56
140
1.0
102
RTVSPost2010PropOp56
 70
     1
102
RTVSPost2010Prop57
140
1.0
102
RTVSPost2010PropOp57
 70
     1
102
RTVSPropertyOp0
 70
     1
102
RTVSPropertyOp1
 70
     1
102
RTVSPropertyOp2
 70
     1
102
RTVSPropertyOp3
 70
     1
102
RTVSPropertyOp4
 70
     1
102
RTVSPropertyOp5
 70
     1
102
RTVSPropertyOp6
 70
     1
102
RTVSPropertyOp7
 70
     1
102
RTVSPropertyOp8
 70
     1
102
RTVSPropertyOp9
 70
     1
102
RTVSPropertyOp10
 70
     1
102
RTVSPropertyOp11
 70
     1
102
RTVSPropertyOp12
 70
     1
102
RTVSPropertyOp13
 70
     1
102
RTVSPropertyOp14
 70
     1
102
RTVSPropertyOp15
 70
     1
102
RTVSPropertyOp16
 70
     1
102
RTVSPropertyOp17
 70
     1
102
RTVSPropertyOp18
 70
     1
102
RTVSPropertyOp19
 70
     1
102
RTVSPropertyOp20
 70
     1
102
RTVSPropertyOp21
 70
     1
102
RTVSPropertyOp22
 70
     1
102
RTVSPropertyOp23
 70
     1
102
RTVSPropertyOp24
 70
     1
102
RTVSPropertyOp25
 70
     1
102
RTVSPropertyOp26
 70
     1
102
RTVSPropertyOp27
 70
     1
102
RTVSPropertyOp28
 70
     1
102
RTVSPropertyOp29
 70
     1
102
RTVSPropertyOp30
 70
     1
102
RTVSPropertyOp31
 70
     1
102
RTVSPropertyOp32
 70
     1
102
RTVSPropertyOp33
 70
     1
102
RTVSPropertyOp34
 70
     1
102
RTVSPropertyOp35
 70
     1
102
RTVSPropertyOp36
 70
     1
102
RTVSPropertyOp37
 70
     1
102
RTVSPropertyOp38
 70
     1
102
RTVSPropertyOp39
 70
     1
102
RTVSPropertyOp40
 70
     1
102
RTVSPropertyOp41
 70
     1
102
RTVSPropertyOp42
 70
     1
102
RTVSPropertyOp43
 70
     1
102
RTVSPropertyOp44
 70
     1
102
RTVSPropertyOp45
 70
     1
102
RTVSPropertyOp46
 70
     1
102
RTVSPropertyOp47
 70
     1
102
RTVSPropertyOp48
 70
     1
102
RTVSPropertyOp49
 70
     1
102
RTVSPropertyOp50
 70
     1
102
RTVSPropertyOp51
 70
     0
102
RTVSPropertyOp52
 70
     0
102
RTVSPropertyOp53
 70
     1
102
RTVSPropertyOp54
 70
     1
102
RTVSPropertyOp55
 70
     1
102
RTVSPropertyOp56
 70
     1
102
RTVSPropertyOp57
 70
     1
102
RTVSPropertyOp58
 70
     1
102
RTVSPropertyOp59
 70
     1
102
RTVSPropertyOp60
 70
     1
102
RTVSPropertyOp61
 70
     1
102
RTVSPropertyOp62
 70
     1
  0
XRECORD
  5
122A7
102
{ACAD_REACTORS
330
122A6
102
}
330
122A6
100
AcDbXrecord
280
     1
102
RTVSPost2010Prop28
280
     0
102
RTVSPost2010PropOp28
 70
     1
102
RTVSPost2010Prop29
280
     1
102
RTVSPost2010PropOp29
 70
     1
102
RTVSPost2010Prop30
280
     1
102
RTVSPost2010PropOp30
 70
     1
102
RTVSPost2010Prop31
280
     0
102
RTVSPost2010PropOp31
 70
     1
102
RTVSPost2010Prop32
280
     0
102
RTVSPost2010PropOp32
 70
     1
102
RTVSPost2010Prop33
280
     0
102
RTVSPost2010PropOp33
 70
     1
102
RTVSPost2010Prop34
280
     0
102
RTVSPost2010PropOp34
 70
     1
102
RTVSPost2010Prop35
280
     0
102
RTVSPost2010PropOp35
 70
     1
102
RTVSPost2010Prop36
280
     0
102
RTVSPost2010PropOp36
 70
     1
102
RTVSPost2010Prop37
 90
       50
102
RTVSPost2010PropOp37
 70
     1
102
RTVSPost2010Prop38
140
0.0
102
RTVSPost2010PropOp38
 70
     1
102
RTVSPost2010Prop39
140
1.0
102
RTVSPost2010PropOp39
 70
     1
102
RTVSPost2010Prop40
 90
        0
102
RTVSPost2010PropOp40
 70
     1
102
RTVSPost2010Prop41ColorIndex
 90
       18
102
RTVSPost2010Prop41ColorRGB
 90
        0
102
RTVSPost2010PropOp41
 70
     1
102
RTVSPost2010Prop42
 90
       50
102
RTVSPost2010PropOp42
 70
     1
102
RTVSPost2010Prop43
 90
        3
102
RTVSPost2010PropOp43
 70
     1
102
RTVSPost2010Prop44ColorIndex
 90
        5
102
RTVSPost2010Prop44ColorRGB
 90
      255
102
RTVSPost2010PropOp44
 70
     1
102
RTVSPost2010Prop45
280
     0
102
RTVSPost2010PropOp45
 70
     1
102
RTVSPost2010Prop46
 90
       50
102
RTVSPost2010PropOp46
 70
     1
102
RTVSPost2010Prop47
 90
       50
102
RTVSPost2010PropOp47
 70
     1
102
RTVSPost2010Prop48
 90
       50
102
RTVSPost2010PropOp48
 70
     1
102
RTVSPost2010Prop49
280
     0
102
RTVSPost2010PropOp49
 70
     1
102
RTVSPost2010Prop50
 90
       50
102
RTVSPost2010PropOp50
 70
     1
102
RTVSPost2010Prop51ColorIndex
 90
      256
102
RTVSPost2010Prop51ColorRGB
 90
-16777216
102
RTVSPost2010PropOp51
 70
     0
102
RTVSPost2010Prop52
140
1.0
102
RTVSPost2010PropOp52
 70
     0
102
RTVSPost2010Prop53
 90
        2
102
RTVSPost2010PropOp53
 70
     1
102
RTVSPost2010Prop54
  1
strokes_ogs.tif
102
RTVSPost2010PropOp54
 70
     1
102
RTVSPost2010Prop55
280
     0
102
RTVSPost2010PropOp55
 70
     1
102
RTVSPost2010Prop56
140
1.0
102
RTVSPost2010PropOp56
 70
     1
102
RTVSPost2010Prop57
140
1.0
102
RTVSPost2010PropOp57
 70
     1
102
RTVSPropertyOp0
 70
     1
102
RTVSPropertyOp1
 70
     1
102
RTVSPropertyOp2
 70
     1
102
RTVSPropertyOp3
 70
     1
102
RTVSPropertyOp4
 70
     1
102
RTVSPropertyOp5
 70
     1
102
RTVSPropertyOp6
 70
     1
102
RTVSPropertyOp7
 70
     1
102
RTVSPropertyOp8
 70
     1
102
RTVSPropertyOp9
 70
     1
102
RTVSPropertyOp10
 70
     1
102
RTVSPropertyOp11
 70
     1
102
RTVSPropertyOp12
 70
     1
102
RTVSPropertyOp13
 70
     1
102
RTVSPropertyOp14
 70
     1
102
RTVSPropertyOp15
 70
     1
102
RTVSPropertyOp16
 70
     1
102
RTVSPropertyOp17
 70
     1
102
RTVSPropertyOp18
 70
     1
102
RTVSPropertyOp19
 70
     1
102
RTVSPropertyOp20
 70
     1
102
RTVSPropertyOp21
 70
     1
102
RTVSPropertyOp22
 70
     1
102
RTVSPropertyOp23
 70
     1
102
RTVSPropertyOp24
 70
     1
102
RTVSPropertyOp25
 70
     1
102
RTVSPropertyOp26
 70
     1
102
RTVSPropertyOp27
 70
     1
102
RTVSPropertyOp28
 70
     1
102
RTVSPropertyOp29
 70
     1
102
RTVSPropertyOp30
 70
     1
102
RTVSPropertyOp31
 70
     1
102
RTVSPropertyOp32
 70
     1
102
RTVSPropertyOp33
 70
     1
102
RTVSPropertyOp34
 70
     1
102
RTVSPropertyOp35
 70
     1
102
RTVSPropertyOp36
 70
     1
102
RTVSPropertyOp37
 70
     1
102
RTVSPropertyOp38
 70
     1
102
RTVSPropertyOp39
 70
     1
102
RTVSPropertyOp40
 70
     1
102
RTVSPropertyOp41
 70
     1
102
RTVSPropertyOp42
 70
     1
102
RTVSPropertyOp43
 70
     1
102
RTVSPropertyOp44
 70
     1
102
RTVSPropertyOp45
 70
     1
102
RTVSPropertyOp46
 70
     1
102
RTVSPropertyOp47
 70
     1
102
RTVSPropertyOp48
 70
     1
102
RTVSPropertyOp49
 70
     1
102
RTVSPropertyOp50
 70
     1
102
RTVSPropertyOp51
 70
     0
102
RTVSPropertyOp52
 70
     0
102
RTVSPropertyOp53
 70
     1
102
RTVSPropertyOp54
 70
     1
102
RTVSPropertyOp55
 70
     1
102
RTVSPropertyOp56
 70
     1
102
RTVSPropertyOp57
 70
     1
102
RTVSPropertyOp58
 70
     1
102
RTVSPropertyOp59
 70
     1
102
RTVSPropertyOp60
 70
     1
102
RTVSPropertyOp61
 70
     1
102
RTVSPropertyOp62
 70
     1
  0
XRECORD
  5
12299
102
{ACAD_REACTORS
330
12298
102
}
330
12298
100
AcDbXrecord
280
     1
102
RTVSPost2010Prop28
280
     0
102
RTVSPost2010PropOp28
 70
     1
102
RTVSPost2010Prop29
280
     1
102
RTVSPost2010PropOp29
 70
     1
102
RTVSPost2010Prop30
280
     1
102
RTVSPost2010PropOp30
 70
     1
102
RTVSPost2010Prop31
280
     0
102
RTVSPost2010PropOp31
 70
     1
102
RTVSPost2010Prop32
280
     0
102
RTVSPost2010PropOp32
 70
     1
102
RTVSPost2010Prop33
280
     0
102
RTVSPost2010PropOp33
 70
     1
102
RTVSPost2010Prop34
280
     0
102
RTVSPost2010PropOp34
 70
     1
102
RTVSPost2010Prop35
280
     0
102
RTVSPost2010PropOp35
 70
     1
102
RTVSPost2010Prop36
280
     0
102
RTVSPost2010PropOp36
 70
     1
102
RTVSPost2010Prop37
 90
       50
102
RTVSPost2010PropOp37
 70
     1
102
RTVSPost2010Prop38
140
0.0
102
RTVSPost2010PropOp38
 70
     1
102
RTVSPost2010Prop39
140
1.0
102
RTVSPost2010PropOp39
 70
     1
102
RTVSPost2010Prop40
 90
        0
102
RTVSPost2010PropOp40
 70
     1
102
RTVSPost2010Prop41ColorIndex
 90
       18
102
RTVSPost2010Prop41ColorRGB
 90
        0
102
RTVSPost2010PropOp41
 70
     1
102
RTVSPost2010Prop42
 90
       50
102
RTVSPost2010PropOp42
 70
     1
102
RTVSPost2010Prop43
 90
        3
102
RTVSPost2010PropOp43
 70
     1
102
RTVSPost2010Prop44ColorIndex
 90
        5
102
RTVSPost2010Prop44ColorRGB
 90
      255
102
RTVSPost2010PropOp44
 70
     1
102
RTVSPost2010Prop45
280
     0
102
RTVSPost2010PropOp45
 70
     1
102
RTVSPost2010Prop46
 90
       50
102
RTVSPost2010PropOp46
 70
     1
102
RTVSPost2010Prop47
 90
       50
102
RTVSPost2010PropOp47
 70
     1
102
RTVSPost2010Prop48
 90
       50
102
RTVSPost2010PropOp48
 70
     1
102
RTVSPost2010Prop49
280
     0
102
RTVSPost2010PropOp49
 70
     1
102
RTVSPost2010Prop50
 90
       50
102
RTVSPost2010PropOp50
 70
     1
102
RTVSPost2010Prop51ColorIndex
 90
      256
102
RTVSPost2010Prop51ColorRGB
 90
-16777216
102
RTVSPost2010PropOp51
 70
     0
102
RTVSPost2010Prop52
140
1.0
102
RTVSPost2010PropOp52
 70
     0
102
RTVSPost2010Prop53
 90
        2
102
RTVSPost2010PropOp53
 70
     1
102
RTVSPost2010Prop54
  1
strokes_ogs.tif
102
RTVSPost2010PropOp54
 70
     1
102
RTVSPost2010Prop55
280
     0
102
RTVSPost2010PropOp55
 70
     1
102
RTVSPost2010Prop56
140
1.0
102
RTVSPost2010PropOp56
 70
     1
102
RTVSPost2010Prop57
140
1.0
102
RTVSPost2010PropOp57
 70
     1
102
RTVSPropertyOp0
 70
     1
102
RTVSPropertyOp1
 70
     1
102
RTVSPropertyOp2
 70
     1
102
RTVSPropertyOp3
 70
     1
102
RTVSPropertyOp4
 70
     1
102
RTVSPropertyOp5
 70
     1
102
RTVSPropertyOp6
 70
     1
102
RTVSPropertyOp7
 70
     1
102
RTVSPropertyOp8
 70
     1
102
RTVSPropertyOp9
 70
     1
102
RTVSPropertyOp10
 70
     1
102
RTVSPropertyOp11
 70
     1
102
RTVSPropertyOp12
 70
     1
102
RTVSPropertyOp13
 70
     1
102
RTVSPropertyOp14
 70
     1
102
RTVSPropertyOp15
 70
     1
102
RTVSPropertyOp16
 70
     1
102
RTVSPropertyOp17
 70
     1
102
RTVSPropertyOp18
 70
     1
102
RTVSPropertyOp19
 70
     1
102
RTVSPropertyOp20
 70
     1
102
RTVSPropertyOp21
 70
     1
102
RTVSPropertyOp22
 70
     1
102
RTVSPropertyOp23
 70
     1
102
RTVSPropertyOp24
 70
     1
102
RTVSPropertyOp25
 70
     1
102
RTVSPropertyOp26
 70
     1
102
RTVSPropertyOp27
 70
     1
102
RTVSPropertyOp28
 70
     1
102
RTVSPropertyOp29
 70
     1
102
RTVSPropertyOp30
 70
     1
102
RTVSPropertyOp31
 70
     1
102
RTVSPropertyOp32
 70
     1
102
RTVSPropertyOp33
 70
     1
102
RTVSPropertyOp34
 70
     1
102
RTVSPropertyOp35
 70
     1
102
RTVSPropertyOp36
 70
     1
102
RTVSPropertyOp37
 70
     1
102
RTVSPropertyOp38
 70
     1
102
RTVSPropertyOp39
 70
     1
102
RTVSPropertyOp40
 70
     1
102
RTVSPropertyOp41
 70
     1
102
RTVSPropertyOp42
 70
     1
102
RTVSPropertyOp43
 70
     1
102
RTVSPropertyOp44
 70
     1
102
RTVSPropertyOp45
 70
     1
102
RTVSPropertyOp46
 70
     1
102
RTVSPropertyOp47
 70
     1
102
RTVSPropertyOp48
 70
     1
102
RTVSPropertyOp49
 70
     1
102
RTVSPropertyOp50
 70
     1
102
RTVSPropertyOp51
 70
     0
102
RTVSPropertyOp52
 70
     0
102
RTVSPropertyOp53
 70
     1
102
RTVSPropertyOp54
 70
     1
102
RTVSPropertyOp55
 70
     1
102
RTVSPropertyOp56
 70
     1
102
RTVSPropertyOp57
 70
     1
102
RTVSPropertyOp58
 70
     1
102
RTVSPropertyOp59
 70
     1
102
RTVSPropertyOp60
 70
     1
102
RTVSPropertyOp61
 70
     1
102
RTVSPropertyOp62
 70
     1
  0
XRECORD
  5
1229D
102
{ACAD_REACTORS
330
1229C
102
}
330
1229C
100
AcDbXrecord
280
     1
102
RTVSPost2010Prop28
280
     0
102
RTVSPost2010PropOp28
 70
     1
102
RTVSPost2010Prop29
280
     1
102
RTVSPost2010PropOp29
 70
     1
102
RTVSPost2010Prop30
280
     1
102
RTVSPost2010PropOp30
 70
     1
102
RTVSPost2010Prop31
280
     0
102
RTVSPost2010PropOp31
 70
     1
102
RTVSPost2010Prop32
280
     0
102
RTVSPost2010PropOp32
 70
     1
102
RTVSPost2010Prop33
280
     0
102
RTVSPost2010PropOp33
 70
     1
102
RTVSPost2010Prop34
280
     0
102
RTVSPost2010PropOp34
 70
     1
102
RTVSPost2010Prop35
280
     0
102
RTVSPost2010PropOp35
 70
     1
102
RTVSPost2010Prop36
280
     0
102
RTVSPost2010PropOp36
 70
     1
102
RTVSPost2010Prop37
 90
       50
102
RTVSPost2010PropOp37
 70
     1
102
RTVSPost2010Prop38
140
0.0
102
RTVSPost2010PropOp38
 70
     1
102
RTVSPost2010Prop39
140
1.0
102
RTVSPost2010PropOp39
 70
     1
102
RTVSPost2010Prop40
 90
        0
102
RTVSPost2010PropOp40
 70
     1
102
RTVSPost2010Prop41ColorIndex
 90
       18
102
RTVSPost2010Prop41ColorRGB
 90
        0
102
RTVSPost2010PropOp41
 70
     1
102
RTVSPost2010Prop42
 90
       50
102
RTVSPost2010PropOp42
 70
     1
102
RTVSPost2010Prop43
 90
        3
102
RTVSPost2010PropOp43
 70
     1
102
RTVSPost2010Prop44ColorIndex
 90
        5
102
RTVSPost2010Prop44ColorRGB
 90
      255
102
RTVSPost2010PropOp44
 70
     1
102
RTVSPost2010Prop45
280
     0
102
RTVSPost2010PropOp45
 70
     1
102
RTVSPost2010Prop46
 90
       50
102
RTVSPost2010PropOp46
 70
     1
102
RTVSPost2010Prop47
 90
       50
102
RTVSPost2010PropOp47
 70
     1
102
RTVSPost2010Prop48
 90
       50
102
RTVSPost2010PropOp48
 70
     1
102
RTVSPost2010Prop49
280
     0
102
RTVSPost2010PropOp49
 70
     1
102
RTVSPost2010Prop50
 90
       50
102
RTVSPost2010PropOp50
 70
     1
102
RTVSPost2010Prop51ColorIndex
 90
      256
102
RTVSPost2010Prop51ColorRGB
 90
-16777216
102
RTVSPost2010PropOp51
 70
     0
102
RTVSPost2010Prop52
140
1.0
102
RTVSPost2010PropOp52
 70
     0
102
RTVSPost2010Prop53
 90
        2
102
RTVSPost2010PropOp53
 70
     1
102
RTVSPost2010Prop54
  1
strokes_ogs.tif
102
RTVSPost2010PropOp54
 70
     1
102
RTVSPost2010Prop55
280
     0
102
RTVSPost2010PropOp55
 70
     1
102
RTVSPost2010Prop56
140
1.0
102
RTVSPost2010PropOp56
 70
     1
102
RTVSPost2010Prop57
140
1.0
102
RTVSPost2010PropOp57
 70
     1
102
RTVSPropertyOp0
 70
     1
102
RTVSPropertyOp1
 70
     1
102
RTVSPropertyOp2
 70
     1
102
RTVSPropertyOp3
 70
     1
102
RTVSPropertyOp4
 70
     1
102
RTVSPropertyOp5
 70
     1
102
RTVSPropertyOp6
 70
     1
102
RTVSPropertyOp7
 70
     1
102
RTVSPropertyOp8
 70
     1
102
RTVSPropertyOp9
 70
     1
102
RTVSPropertyOp10
 70
     1
102
RTVSPropertyOp11
 70
     1
102
RTVSPropertyOp12
 70
     1
102
RTVSPropertyOp13
 70
     1
102
RTVSPropertyOp14
 70
     1
102
RTVSPropertyOp15
 70
     1
102
RTVSPropertyOp16
 70
     1
102
RTVSPropertyOp17
 70
     1
102
RTVSPropertyOp18
 70
     1
102
RTVSPropertyOp19
 70
     1
102
RTVSPropertyOp20
 70
     1
102
RTVSPropertyOp21
 70
     1
102
RTVSPropertyOp22
 70
     1
102
RTVSPropertyOp23
 70
     1
102
RTVSPropertyOp24
 70
     1
102
RTVSPropertyOp25
 70
     1
102
RTVSPropertyOp26
 70
     1
102
RTVSPropertyOp27
 70
     1
102
RTVSPropertyOp28
 70
     1
102
RTVSPropertyOp29
 70
     1
102
RTVSPropertyOp30
 70
     1
102
RTVSPropertyOp31
 70
     1
102
RTVSPropertyOp32
 70
     1
102
RTVSPropertyOp33
 70
     1
102
RTVSPropertyOp34
 70
     1
102
RTVSPropertyOp35
 70
     1
102
RTVSPropertyOp36
 70
     1
102
RTVSPropertyOp37
 70
     1
102
RTVSPropertyOp38
 70
     1
102
RTVSPropertyOp39
 70
     1
102
RTVSPropertyOp40
 70
     1
102
RTVSPropertyOp41
 70
     1
102
RTVSPropertyOp42
 70
     1
102
RTVSPropertyOp43
 70
     1
102
RTVSPropertyOp44
 70
     1
102
RTVSPropertyOp45
 70
     1
102
RTVSPropertyOp46
 70
     1
102
RTVSPropertyOp47
 70
     1
102
RTVSPropertyOp48
 70
     1
102
RTVSPropertyOp49
 70
     1
102
RTVSPropertyOp50
 70
     1
102
RTVSPropertyOp51
 70
     0
102
RTVSPropertyOp52
 70
     0
102
RTVSPropertyOp53
 70
     1
102
RTVSPropertyOp54
 70
     1
102
RTVSPropertyOp55
 70
     1
102
RTVSPropertyOp56
 70
     1
102
RTVSPropertyOp57
 70
     1
102
RTVSPropertyOp58
 70
     1
102
RTVSPropertyOp59
 70
     1
102
RTVSPropertyOp60
 70
     1
102
RTVSPropertyOp61
 70
     1
102
RTVSPropertyOp62
 70
     1
  0
XRECORD
  5
122AF
102
{ACAD_REACTORS
330
122AE
102
}
330
122AE
100
AcDbXrecord
280
     1
102
RTVSPost2010Prop28
280
     0
102
RTVSPost2010PropOp28
 70
     1
102
RTVSPost2010Prop29
280
     1
102
RTVSPost2010PropOp29
 70
     1
102
RTVSPost2010Prop30
280
     1
102
RTVSPost2010PropOp30
 70
     1
102
RTVSPost2010Prop31
280
     0
102
RTVSPost2010PropOp31
 70
     1
102
RTVSPost2010Prop32
280
     0
102
RTVSPost2010PropOp32
 70
     1
102
RTVSPost2010Prop33
280
     0
102
RTVSPost2010PropOp33
 70
     1
102
RTVSPost2010Prop34
280
     0
102
RTVSPost2010PropOp34
 70
     1
102
RTVSPost2010Prop35
280
     0
102
RTVSPost2010PropOp35
 70
     1
102
RTVSPost2010Prop36
280
     0
102
RTVSPost2010PropOp36
 70
     1
102
RTVSPost2010Prop37
 90
       50
102
RTVSPost2010PropOp37
 70
     1
102
RTVSPost2010Prop38
140
0.0
102
RTVSPost2010PropOp38
 70
     1
102
RTVSPost2010Prop39
140
1.0
102
RTVSPost2010PropOp39
 70
     1
102
RTVSPost2010Prop40
 90
        0
102
RTVSPost2010PropOp40
 70
     1
102
RTVSPost2010Prop41ColorIndex
 90
       18
102
RTVSPost2010Prop41ColorRGB
 90
        0
102
RTVSPost2010PropOp41
 70
     1
102
RTVSPost2010Prop42
 90
       50
102
RTVSPost2010PropOp42
 70
     1
102
RTVSPost2010Prop43
 90
        3
102
RTVSPost2010PropOp43
 70
     1
102
RTVSPost2010Prop44ColorIndex
 90
        5
102
RTVSPost2010Prop44ColorRGB
 90
      255
102
RTVSPost2010PropOp44
 70
     1
102
RTVSPost2010Prop45
280
     0
102
RTVSPost2010PropOp45
 70
     1
102
RTVSPost2010Prop46
 90
       50
102
RTVSPost2010PropOp46
 70
     1
102
RTVSPost2010Prop47
 90
       50
102
RTVSPost2010PropOp47
 70
     1
102
RTVSPost2010Prop48
 90
       50
102
RTVSPost2010PropOp48
 70
     1
102
RTVSPost2010Prop49
280
     0
102
RTVSPost2010PropOp49
 70
     1
102
RTVSPost2010Prop50
 90
       50
102
RTVSPost2010PropOp50
 70
     1
102
RTVSPost2010Prop51ColorIndex
 90
      256
102
RTVSPost2010Prop51ColorRGB
 90
-16777216
102
RTVSPost2010PropOp51
 70
     0
102
RTVSPost2010Prop52
140
1.0
102
RTVSPost2010PropOp52
 70
     0
102
RTVSPost2010Prop53
 90
        2
102
RTVSPost2010PropOp53
 70
     1
102
RTVSPost2010Prop54
  1
strokes_ogs.tif
102
RTVSPost2010PropOp54
 70
     1
102
RTVSPost2010Prop55
280
     0
102
RTVSPost2010PropOp55
 70
     1
102
RTVSPost2010Prop56
140
1.0
102
RTVSPost2010PropOp56
 70
     1
102
RTVSPost2010Prop57
140
1.0
102
RTVSPost2010PropOp57
 70
     1
102
RTVSPropertyOp0
 70
     0
102
RTVSPropertyOp1
 70
     0
102
RTVSPropertyOp2
 70
     0
102
RTVSPropertyOp3
 70
     0
102
RTVSPropertyOp4
 70
     0
102
RTVSPropertyOp5
 70
     0
102
RTVSPropertyOp6
 70
     0
102
RTVSPropertyOp7
 70
     0
102
RTVSPropertyOp8
 70
     0
102
RTVSPropertyOp9
 70
     0
102
RTVSPropertyOp10
 70
     0
102
RTVSPropertyOp11
 70
     0
102
RTVSPropertyOp12
 70
     0
102
RTVSPropertyOp13
 70
     0
102
RTVSPropertyOp14
 70
     2
102
RTVSPropertyOp15
 70
     0
102
RTVSPropertyOp16
 70
     0
102
RTVSPropertyOp17
 70
     0
102
RTVSPropertyOp18
 70
     0
102
RTVSPropertyOp19
 70
     0
102
RTVSPropertyOp20
 70
     0
102
RTVSPropertyOp21
 70
     0
102
RTVSPropertyOp22
 70
     0
102
RTVSPropertyOp23
 70
     0
102
RTVSPropertyOp24
 70
     0
102
RTVSPropertyOp25
 70
     0
102
RTVSPropertyOp26
 70
     0
102
RTVSPropertyOp27
 70
     0
102
RTVSPropertyOp28
 70
     1
102
RTVSPropertyOp29
 70
     1
102
RTVSPropertyOp30
 70
     1
102
RTVSPropertyOp31
 70
     1
102
RTVSPropertyOp32
 70
     1
102
RTVSPropertyOp33
 70
     1
102
RTVSPropertyOp34
 70
     1
102
RTVSPropertyOp35
 70
     1
102
RTVSPropertyOp36
 70
     1
102
RTVSPropertyOp37
 70
     1
102
RTVSPropertyOp38
 70
     1
102
RTVSPropertyOp39
 70
     1
102
RTVSPropertyOp40
 70
     1
102
RTVSPropertyOp41
 70
     1
102
RTVSPropertyOp42
 70
     1
102
RTVSPropertyOp43
 70
     1
102
RTVSPropertyOp44
 70
     1
102
RTVSPropertyOp45
 70
     1
102
RTVSPropertyOp46
 70
     1
102
RTVSPropertyOp47
 70
     1
102
RTVSPropertyOp48
 70
     1
102
RTVSPropertyOp49
 70
     1
102
RTVSPropertyOp50
 70
     1
102
RTVSPropertyOp51
 70
     0
102
RTVSPropertyOp52
 70
     0
102
RTVSPropertyOp53
 70
     1
102
RTVSPropertyOp54
 70
     1
102
RTVSPropertyOp55
 70
     1
102
RTVSPropertyOp56
 70
     1
102
RTVSPropertyOp57
 70
     1
102
RTVSPropertyOp58
 70
     1
102
RTVSPropertyOp59
 70
     1
102
RTVSPropertyOp60
 70
     1
102
RTVSPropertyOp61
 70
     1
102
RTVSPropertyOp62
 70
     1
  0
XRECORD
  5
122A5
102
{ACAD_REACTORS
330
122A4
102
}
330
122A4
100
AcDbXrecord
280
     1
102
RTVSPost2010Prop28
280
     0
102
RTVSPost2010PropOp28
 70
     1
102
RTVSPost2010Prop29
280
     1
102
RTVSPost2010PropOp29
 70
     1
102
RTVSPost2010Prop30
280
     1
102
RTVSPost2010PropOp30
 70
     1
102
RTVSPost2010Prop31
280
     0
102
RTVSPost2010PropOp31
 70
     1
102
RTVSPost2010Prop32
280
     0
102
RTVSPost2010PropOp32
 70
     1
102
RTVSPost2010Prop33
280
     0
102
RTVSPost2010PropOp33
 70
     1
102
RTVSPost2010Prop34
280
     0
102
RTVSPost2010PropOp34
 70
     1
102
RTVSPost2010Prop35
280
     0
102
RTVSPost2010PropOp35
 70
     1
102
RTVSPost2010Prop36
280
     0
102
RTVSPost2010PropOp36
 70
     1
102
RTVSPost2010Prop37
 90
       50
102
RTVSPost2010PropOp37
 70
     1
102
RTVSPost2010Prop38
140
0.0
102
RTVSPost2010PropOp38
 70
     1
102
RTVSPost2010Prop39
140
1.0
102
RTVSPost2010PropOp39
 70
     1
102
RTVSPost2010Prop40
 90
        0
102
RTVSPost2010PropOp40
 70
     1
102
RTVSPost2010Prop41ColorIndex
 90
       18
102
RTVSPost2010Prop41ColorRGB
 90
        0
102
RTVSPost2010PropOp41
 70
     1
102
RTVSPost2010Prop42
 90
       50
102
RTVSPost2010PropOp42
 70
     1
102
RTVSPost2010Prop43
 90
        3
102
RTVSPost2010PropOp43
 70
     1
102
RTVSPost2010Prop44ColorIndex
 90
        5
102
RTVSPost2010Prop44ColorRGB
 90
      255
102
RTVSPost2010PropOp44
 70
     1
102
RTVSPost2010Prop45
280
     0
102
RTVSPost2010PropOp45
 70
     1
102
RTVSPost2010Prop46
 90
       50
102
RTVSPost2010PropOp46
 70
     1
102
RTVSPost2010Prop47
 90
       50
102
RTVSPost2010PropOp47
 70
     1
102
RTVSPost2010Prop48
 90
       50
102
RTVSPost2010PropOp48
 70
     1
102
RTVSPost2010Prop49
280
     0
102
RTVSPost2010PropOp49
 70
     1
102
RTVSPost2010Prop50
 90
       50
102
RTVSPost2010PropOp50
 70
     1
102
RTVSPost2010Prop51ColorIndex
 90
      256
102
RTVSPost2010Prop51ColorRGB
 90
-16777216
102
RTVSPost2010PropOp51
 70
     0
102
RTVSPost2010Prop52
140
1.0
102
RTVSPost2010PropOp52
 70
     0
102
RTVSPost2010Prop53
 90
        2
102
RTVSPost2010PropOp53
 70
     1
102
RTVSPost2010Prop54
  1
strokes_ogs.tif
102
RTVSPost2010PropOp54
 70
     1
102
RTVSPost2010Prop55
280
     0
102
RTVSPost2010PropOp55
 70
     1
102
RTVSPost2010Prop56
140
1.0
102
RTVSPost2010PropOp56
 70
     1
102
RTVSPost2010Prop57
140
1.0
102
RTVSPost2010PropOp57
 70
     1
102
RTVSPropertyOp0
 70
     1
102
RTVSPropertyOp1
 70
     1
102
RTVSPropertyOp2
 70
     1
102
RTVSPropertyOp3
 70
     1
102
RTVSPropertyOp4
 70
     1
102
RTVSPropertyOp5
 70
     1
102
RTVSPropertyOp6
 70
     1
102
RTVSPropertyOp7
 70
     1
102
RTVSPropertyOp8
 70
     1
102
RTVSPropertyOp9
 70
     1
102
RTVSPropertyOp10
 70
     1
102
RTVSPropertyOp11
 70
     1
102
RTVSPropertyOp12
 70
     1
102
RTVSPropertyOp13
 70
     1
102
RTVSPropertyOp14
 70
     1
102
RTVSPropertyOp15
 70
     1
102
RTVSPropertyOp16
 70
     1
102
RTVSPropertyOp17
 70
     1
102
RTVSPropertyOp18
 70
     1
102
RTVSPropertyOp19
 70
     1
102
RTVSPropertyOp20
 70
     1
102
RTVSPropertyOp21
 70
     1
102
RTVSPropertyOp22
 70
     1
102
RTVSPropertyOp23
 70
     1
102
RTVSPropertyOp24
 70
     1
102
RTVSPropertyOp25
 70
     1
102
RTVSPropertyOp26
 70
     1
102
RTVSPropertyOp27
 70
     1
102
RTVSPropertyOp28
 70
     1
102
RTVSPropertyOp29
 70
     1
102
RTVSPropertyOp30
 70
     1
102
RTVSPropertyOp31
 70
     1
102
RTVSPropertyOp32
 70
     1
102
RTVSPropertyOp33
 70
     1
102
RTVSPropertyOp34
 70
     1
102
RTVSPropertyOp35
 70
     1
102
RTVSPropertyOp36
 70
     1
102
RTVSPropertyOp37
 70
     1
102
RTVSPropertyOp38
 70
     1
102
RTVSPropertyOp39
 70
     1
102
RTVSPropertyOp40
 70
     1
102
RTVSPropertyOp41
 70
     1
102
RTVSPropertyOp42
 70
     1
102
RTVSPropertyOp43
 70
     1
102
RTVSPropertyOp44
 70
     1
102
RTVSPropertyOp45
 70
     1
102
RTVSPropertyOp46
 70
     1
102
RTVSPropertyOp47
 70
     1
102
RTVSPropertyOp48
 70
     1
102
RTVSPropertyOp49
 70
     1
102
RTVSPropertyOp50
 70
     1
102
RTVSPropertyOp51
 70
     0
102
RTVSPropertyOp52
 70
     0
102
RTVSPropertyOp53
 70
     1
102
RTVSPropertyOp54
 70
     1
102
RTVSPropertyOp55
 70
     1
102
RTVSPropertyOp56
 70
     1
102
RTVSPropertyOp57
 70
     1
102
RTVSPropertyOp58
 70
     1
102
RTVSPropertyOp59
 70
     1
102
RTVSPropertyOp60
 70
     1
102
RTVSPropertyOp61
 70
     1
102
RTVSPropertyOp62
 70
     1
  0
XRECORD
  5
12289
102
{ACAD_REACTORS
330
12288
102
}
330
12288
100
AcDbXrecord
280
     1
102
RTVSPost2010Prop28
280
     0
102
RTVSPost2010PropOp28
 70
     1
102
RTVSPost2010Prop29
280
     1
102
RTVSPost2010PropOp29
 70
     1
102
RTVSPost2010Prop30
280
     1
102
RTVSPost2010PropOp30
 70
     1
102
RTVSPost2010Prop31
280
     0
102
RTVSPost2010PropOp31
 70
     1
102
RTVSPost2010Prop32
280
     0
102
RTVSPost2010PropOp32
 70
     1
102
RTVSPost2010Prop33
280
     0
102
RTVSPost2010PropOp33
 70
     1
102
RTVSPost2010Prop34
280
     0
102
RTVSPost2010PropOp34
 70
     1
102
RTVSPost2010Prop35
280
     0
102
RTVSPost2010PropOp35
 70
     1
102
RTVSPost2010Prop36
280
     0
102
RTVSPost2010PropOp36
 70
     1
102
RTVSPost2010Prop37
 90
       50
102
RTVSPost2010PropOp37
 70
     1
102
RTVSPost2010Prop38
140
0.0
102
RTVSPost2010PropOp38
 70
     1
102
RTVSPost2010Prop39
140
1.0
102
RTVSPost2010PropOp39
 70
     1
102
RTVSPost2010Prop40
 90
        0
102
RTVSPost2010PropOp40
 70
     1
102
RTVSPost2010Prop41ColorIndex
 90
       18
102
RTVSPost2010Prop41ColorRGB
 90
        0
102
RTVSPost2010PropOp41
 70
     1
102
RTVSPost2010Prop42
 90
       50
102
RTVSPost2010PropOp42
 70
     1
102
RTVSPost2010Prop43
 90
        3
102
RTVSPost2010PropOp43
 70
     1
102
RTVSPost2010Prop44ColorIndex
 90
        5
102
RTVSPost2010Prop44ColorRGB
 90
      255
102
RTVSPost2010PropOp44
 70
     1
102
RTVSPost2010Prop45
280
     0
102
RTVSPost2010PropOp45
 70
     1
102
RTVSPost2010Prop46
 90
       50
102
RTVSPost2010PropOp46
 70
     1
102
RTVSPost2010Prop47
 90
       50
102
RTVSPost2010PropOp47
 70
     1
102
RTVSPost2010Prop48
 90
       50
102
RTVSPost2010PropOp48
 70
     1
102
RTVSPost2010Prop49
280
     0
102
RTVSPost2010PropOp49
 70
     1
102
RTVSPost2010Prop50
 90
       50
102
RTVSPost2010PropOp50
 70
     1
102
RTVSPost2010Prop51ColorIndex
 90
      256
102
RTVSPost2010Prop51ColorRGB
 90
-16777216
102
RTVSPost2010PropOp51
 70
     0
102
RTVSPost2010Prop52
140
1.0
102
RTVSPost2010PropOp52
 70
     0
102
RTVSPost2010Prop53
 90
        2
102
RTVSPost2010PropOp53
 70
     1
102
RTVSPost2010Prop54
  1
strokes_ogs.tif
102
RTVSPost2010PropOp54
 70
     1
102
RTVSPost2010Prop55
280
     0
102
RTVSPost2010PropOp55
 70
     1
102
RTVSPost2010Prop56
140
1.0
102
RTVSPost2010PropOp56
 70
     1
102
RTVSPost2010Prop57
140
1.0
102
RTVSPost2010PropOp57
 70
     1
102
RTVSPropertyOp0
 70
     1
102
RTVSPropertyOp1
 70
     1
102
RTVSPropertyOp2
 70
     1
102
RTVSPropertyOp3
 70
     1
102
RTVSPropertyOp4
 70
     1
102
RTVSPropertyOp5
 70
     1
102
RTVSPropertyOp6
 70
     1
102
RTVSPropertyOp7
 70
     1
102
RTVSPropertyOp8
 70
     1
102
RTVSPropertyOp9
 70
     1
102
RTVSPropertyOp10
 70
     1
102
RTVSPropertyOp11
 70
     1
102
RTVSPropertyOp12
 70
     1
102
RTVSPropertyOp13
 70
     1
102
RTVSPropertyOp14
 70
     1
102
RTVSPropertyOp15
 70
     1
102
RTVSPropertyOp16
 70
     1
102
RTVSPropertyOp17
 70
     1
102
RTVSPropertyOp18
 70
     1
102
RTVSPropertyOp19
 70
     1
102
RTVSPropertyOp20
 70
     1
102
RTVSPropertyOp21
 70
     1
102
RTVSPropertyOp22
 70
     1
102
RTVSPropertyOp23
 70
     1
102
RTVSPropertyOp24
 70
     1
102
RTVSPropertyOp25
 70
     1
102
RTVSPropertyOp26
 70
     1
102
RTVSPropertyOp27
 70
     1
102
RTVSPropertyOp28
 70
     1
102
RTVSPropertyOp29
 70
     1
102
RTVSPropertyOp30
 70
     1
102
RTVSPropertyOp31
 70
     1
102
RTVSPropertyOp32
 70
     1
102
RTVSPropertyOp33
 70
     1
102
RTVSPropertyOp34
 70
     1
102
RTVSPropertyOp35
 70
     1
102
RTVSPropertyOp36
 70
     1
102
RTVSPropertyOp37
 70
     1
102
RTVSPropertyOp38
 70
     1
102
RTVSPropertyOp39
 70
     1
102
RTVSPropertyOp40
 70
     1
102
RTVSPropertyOp41
 70
     1
102
RTVSPropertyOp42
 70
     1
102
RTVSPropertyOp43
 70
     1
102
RTVSPropertyOp44
 70
     1
102
RTVSPropertyOp45
 70
     1
102
RTVSPropertyOp46
 70
     1
102
RTVSPropertyOp47
 70
     1
102
RTVSPropertyOp48
 70
     1
102
RTVSPropertyOp49
 70
     1
102
RTVSPropertyOp50
 70
     1
102
RTVSPropertyOp51
 70
     0
102
RTVSPropertyOp52
 70
     0
102
RTVSPropertyOp53
 70
     1
102
RTVSPropertyOp54
 70
     1
102
RTVSPropertyOp55
 70
     1
102
RTVSPropertyOp56
 70
     1
102
RTVSPropertyOp57
 70
     1
102
RTVSPropertyOp58
 70
     1
102
RTVSPropertyOp59
 70
     1
102
RTVSPropertyOp60
 70
     1
102
RTVSPropertyOp61
 70
     1
102
RTVSPropertyOp62
 70
     1
  0
XRECORD
  5
1228B
102
{ACAD_REACTORS
330
1228A
102
}
330
1228A
100
AcDbXrecord
280
     1
102
RTVSPost2010Prop28
280
     0
102
RTVSPost2010PropOp28
 70
     1
102
RTVSPost2010Prop29
280
     1
102
RTVSPost2010PropOp29
 70
     1
102
RTVSPost2010Prop30
280
     1
102
RTVSPost2010PropOp30
 70
     1
102
RTVSPost2010Prop31
280
     0
102
RTVSPost2010PropOp31
 70
     1
102
RTVSPost2010Prop32
280
     0
102
RTVSPost2010PropOp32
 70
     1
102
RTVSPost2010Prop33
280
     0
102
RTVSPost2010PropOp33
 70
     1
102
RTVSPost2010Prop34
280
     0
102
RTVSPost2010PropOp34
 70
     1
102
RTVSPost2010Prop35
280
     0
102
RTVSPost2010PropOp35
 70
     1
102
RTVSPost2010Prop36
280
     0
102
RTVSPost2010PropOp36
 70
     1
102
RTVSPost2010Prop37
 90
       50
102
RTVSPost2010PropOp37
 70
     1
102
RTVSPost2010Prop38
140
0.0
102
RTVSPost2010PropOp38
 70
     1
102
RTVSPost2010Prop39
140
1.0
102
RTVSPost2010PropOp39
 70
     1
102
RTVSPost2010Prop40
 90
        0
102
RTVSPost2010PropOp40
 70
     1
102
RTVSPost2010Prop41ColorIndex
 90
       18
102
RTVSPost2010Prop41ColorRGB
 90
        0
102
RTVSPost2010PropOp41
 70
     1
102
RTVSPost2010Prop42
 90
       50
102
RTVSPost2010PropOp42
 70
     1
102
RTVSPost2010Prop43
 90
        3
102
RTVSPost2010PropOp43
 70
     1
102
RTVSPost2010Prop44ColorIndex
 90
        5
102
RTVSPost2010Prop44ColorRGB
 90
      255
102
RTVSPost2010PropOp44
 70
     1
102
RTVSPost2010Prop45
280
     0
102
RTVSPost2010PropOp45
 70
     1
102
RTVSPost2010Prop46
 90
       50
102
RTVSPost2010PropOp46
 70
     1
102
RTVSPost2010Prop47
 90
       50
102
RTVSPost2010PropOp47
 70
     1
102
RTVSPost2010Prop48
 90
       50
102
RTVSPost2010PropOp48
 70
     1
102
RTVSPost2010Prop49
280
     0
102
RTVSPost2010PropOp49
 70
     1
102
RTVSPost2010Prop50
 90
       50
102
RTVSPost2010PropOp50
 70
     1
102
RTVSPost2010Prop51ColorIndex
 90
      256
102
RTVSPost2010Prop51ColorRGB
 90
-16777216
102
RTVSPost2010PropOp51
 70
     0
102
RTVSPost2010Prop52
140
1.0
102
RTVSPost2010PropOp52
 70
     0
102
RTVSPost2010Prop53
 90
        2
102
RTVSPost2010PropOp53
 70
     1
102
RTVSPost2010Prop54
  1
strokes_ogs.tif
102
RTVSPost2010PropOp54
 70
     1
102
RTVSPost2010Prop55
280
     0
102
RTVSPost2010PropOp55
 70
     1
102
RTVSPost2010Prop56
140
1.0
102
RTVSPost2010PropOp56
 70
     1
102
RTVSPost2010Prop57
140
1.0
102
RTVSPost2010PropOp57
 70
     1
102
RTVSPropertyOp0
 70
     1
102
RTVSPropertyOp1
 70
     1
102
RTVSPropertyOp2
 70
     1
102
RTVSPropertyOp3
 70
     1
102
RTVSPropertyOp4
 70
     1
102
RTVSPropertyOp5
 70
     1
102
RTVSPropertyOp6
 70
     1
102
RTVSPropertyOp7
 70
     1
102
RTVSPropertyOp8
 70
     1
102
RTVSPropertyOp9
 70
     1
102
RTVSPropertyOp10
 70
     1
102
RTVSPropertyOp11
 70
     1
102
RTVSPropertyOp12
 70
     1
102
RTVSPropertyOp13
 70
     1
102
RTVSPropertyOp14
 70
     1
102
RTVSPropertyOp15
 70
     1
102
RTVSPropertyOp16
 70
     1
102
RTVSPropertyOp17
 70
     1
102
RTVSPropertyOp18
 70
     1
102
RTVSPropertyOp19
 70
     1
102
RTVSPropertyOp20
 70
     1
102
RTVSPropertyOp21
 70
     1
102
RTVSPropertyOp22
 70
     1
102
RTVSPropertyOp23
 70
     1
102
RTVSPropertyOp24
 70
     1
102
RTVSPropertyOp25
 70
     1
102
RTVSPropertyOp26
 70
     1
102
RTVSPropertyOp27
 70
     1
102
RTVSPropertyOp28
 70
     1
102
RTVSPropertyOp29
 70
     1
102
RTVSPropertyOp30
 70
     1
102
RTVSPropertyOp31
 70
     1
102
RTVSPropertyOp32
 70
     1
102
RTVSPropertyOp33
 70
     1
102
RTVSPropertyOp34
 70
     1
102
RTVSPropertyOp35
 70
     1
102
RTVSPropertyOp36
 70
     1
102
RTVSPropertyOp37
 70
     1
102
RTVSPropertyOp38
 70
     1
102
RTVSPropertyOp39
 70
     1
102
RTVSPropertyOp40
 70
     1
102
RTVSPropertyOp41
 70
     1
102
RTVSPropertyOp42
 70
     1
102
RTVSPropertyOp43
 70
     1
102
RTVSPropertyOp44
 70
     1
102
RTVSPropertyOp45
 70
     1
102
RTVSPropertyOp46
 70
     1
102
RTVSPropertyOp47
 70
     1
102
RTVSPropertyOp48
 70
     1
102
RTVSPropertyOp49
 70
     1
102
RTVSPropertyOp50
 70
     1
102
RTVSPropertyOp51
 70
     0
102
RTVSPropertyOp52
 70
     0
102
RTVSPropertyOp53
 70
     1
102
RTVSPropertyOp54
 70
     1
102
RTVSPropertyOp55
 70
     1
102
RTVSPropertyOp56
 70
     1
102
RTVSPropertyOp57
 70
     1
102
RTVSPropertyOp58
 70
     1
102
RTVSPropertyOp59
 70
     1
102
RTVSPropertyOp60
 70
     1
102
RTVSPropertyOp61
 70
     1
102
RTVSPropertyOp62
 70
     1
  0
XRECORD
  5
1228D
102
{ACAD_REACTORS
330
1228C
102
}
330
1228C
100
AcDbXrecord
280
     1
102
RTVSPost2010Prop28
280
     0
102
RTVSPost2010PropOp28
 70
     1
102
RTVSPost2010Prop29
280
     1
102
RTVSPost2010PropOp29
 70
     1
102
RTVSPost2010Prop30
280
     1
102
RTVSPost2010PropOp30
 70
     1
102
RTVSPost2010Prop31
280
     0
102
RTVSPost2010PropOp31
 70
     1
102
RTVSPost2010Prop32
280
     0
102
RTVSPost2010PropOp32
 70
     1
102
RTVSPost2010Prop33
280
     0
102
RTVSPost2010PropOp33
 70
     1
102
RTVSPost2010Prop34
280
     0
102
RTVSPost2010PropOp34
 70
     1
102
RTVSPost2010Prop35
280
     0
102
RTVSPost2010PropOp35
 70
     1
102
RTVSPost2010Prop36
280
     0
102
RTVSPost2010PropOp36
 70
     1
102
RTVSPost2010Prop37
 90
       50
102
RTVSPost2010PropOp37
 70
     1
102
RTVSPost2010Prop38
140
0.0
102
RTVSPost2010PropOp38
 70
     1
102
RTVSPost2010Prop39
140
1.0
102
RTVSPost2010PropOp39
 70
     1
102
RTVSPost2010Prop40
 90
        0
102
RTVSPost2010PropOp40
 70
     1
102
RTVSPost2010Prop41ColorIndex
 90
       18
102
RTVSPost2010Prop41ColorRGB
 90
        0
102
RTVSPost2010PropOp41
 70
     1
102
RTVSPost2010Prop42
 90
       50
102
RTVSPost2010PropOp42
 70
     1
102
RTVSPost2010Prop43
 90
        3
102
RTVSPost2010PropOp43
 70
     1
102
RTVSPost2010Prop44ColorIndex
 90
        5
102
RTVSPost2010Prop44ColorRGB
 90
      255
102
RTVSPost2010PropOp44
 70
     1
102
RTVSPost2010Prop45
280
     0
102
RTVSPost2010PropOp45
 70
     1
102
RTVSPost2010Prop46
 90
       50
102
RTVSPost2010PropOp46
 70
     1
102
RTVSPost2010Prop47
 90
       50
102
RTVSPost2010PropOp47
 70
     1
102
RTVSPost2010Prop48
 90
       50
102
RTVSPost2010PropOp48
 70
     1
102
RTVSPost2010Prop49
280
     0
102
RTVSPost2010PropOp49
 70
     1
102
RTVSPost2010Prop50
 90
       50
102
RTVSPost2010PropOp50
 70
     1
102
RTVSPost2010Prop51ColorIndex
 90
      256
102
RTVSPost2010Prop51ColorRGB
 90
-16777216
102
RTVSPost2010PropOp51
 70
     0
102
RTVSPost2010Prop52
140
1.0
102
RTVSPost2010PropOp52
 70
     0
102
RTVSPost2010Prop53
 90
        2
102
RTVSPost2010PropOp53
 70
     1
102
RTVSPost2010Prop54
  1
strokes_ogs.tif
102
RTVSPost2010PropOp54
 70
     1
102
RTVSPost2010Prop55
280
     0
102
RTVSPost2010PropOp55
 70
     1
102
RTVSPost2010Prop56
140
1.0
102
RTVSPost2010PropOp56
 70
     1
102
RTVSPost2010Prop57
140
1.0
102
RTVSPost2010PropOp57
 70
     1
102
RTVSPropertyOp0
 70
     1
102
RTVSPropertyOp1
 70
     1
102
RTVSPropertyOp2
 70
     1
102
RTVSPropertyOp3
 70
     1
102
RTVSPropertyOp4
 70
     1
102
RTVSPropertyOp5
 70
     1
102
RTVSPropertyOp6
 70
     1
102
RTVSPropertyOp7
 70
     1
102
RTVSPropertyOp8
 70
     1
102
RTVSPropertyOp9
 70
     1
102
RTVSPropertyOp10
 70
     1
102
RTVSPropertyOp11
 70
     1
102
RTVSPropertyOp12
 70
     1
102
RTVSPropertyOp13
 70
     1
102
RTVSPropertyOp14
 70
     1
102
RTVSPropertyOp15
 70
     1
102
RTVSPropertyOp16
 70
     1
102
RTVSPropertyOp17
 70
     1
102
RTVSPropertyOp18
 70
     1
102
RTVSPropertyOp19
 70
     1
102
RTVSPropertyOp20
 70
     1
102
RTVSPropertyOp21
 70
     1
102
RTVSPropertyOp22
 70
     1
102
RTVSPropertyOp23
 70
     1
102
RTVSPropertyOp24
 70
     1
102
RTVSPropertyOp25
 70
     1
102
RTVSPropertyOp26
 70
     1
102
RTVSPropertyOp27
 70
     1
102
RTVSPropertyOp28
 70
     1
102
RTVSPropertyOp29
 70
     1
102
RTVSPropertyOp30
 70
     1
102
RTVSPropertyOp31
 70
     1
102
RTVSPropertyOp32
 70
     1
102
RTVSPropertyOp33
 70
     1
102
RTVSPropertyOp34
 70
     1
102
RTVSPropertyOp35
 70
     1
102
RTVSPropertyOp36
 70
     1
102
RTVSPropertyOp37
 70
     1
102
RTVSPropertyOp38
 70
     1
102
RTVSPropertyOp39
 70
     1
102
RTVSPropertyOp40
 70
     1
102
RTVSPropertyOp41
 70
     1
102
RTVSPropertyOp42
 70
     1
102
RTVSPropertyOp43
 70
     1
102
RTVSPropertyOp44
 70
     1
102
RTVSPropertyOp45
 70
     1
102
RTVSPropertyOp46
 70
     1
102
RTVSPropertyOp47
 70
     1
102
RTVSPropertyOp48
 70
     1
102
RTVSPropertyOp49
 70
     1
102
RTVSPropertyOp50
 70
     1
102
RTVSPropertyOp51
 70
     0
102
RTVSPropertyOp52
 70
     0
102
RTVSPropertyOp53
 70
     1
102
RTVSPropertyOp54
 70
     1
102
RTVSPropertyOp55
 70
     1
102
RTVSPropertyOp56
 70
     1
102
RTVSPropertyOp57
 70
     1
102
RTVSPropertyOp58
 70
     1
102
RTVSPropertyOp59
 70
     1
102
RTVSPropertyOp60
 70
     1
102
RTVSPropertyOp61
 70
     1
102
RTVSPropertyOp62
 70
     1
  0
XRECORD
  5
1228F
102
{ACAD_REACTORS
330
1228E
102
}
330
1228E
100
AcDbXrecord
280
     1
102
RTVSPost2010Prop28
280
     0
102
RTVSPost2010PropOp28
 70
     1
102
RTVSPost2010Prop29
280
     1
102
RTVSPost2010PropOp29
 70
     1
102
RTVSPost2010Prop30
280
     1
102
RTVSPost2010PropOp30
 70
     1
102
RTVSPost2010Prop31
280
     0
102
RTVSPost2010PropOp31
 70
     1
102
RTVSPost2010Prop32
280
     0
102
RTVSPost2010PropOp32
 70
     1
102
RTVSPost2010Prop33
280
     0
102
RTVSPost2010PropOp33
 70
     1
102
RTVSPost2010Prop34
280
     0
102
RTVSPost2010PropOp34
 70
     1
102
RTVSPost2010Prop35
280
     0
102
RTVSPost2010PropOp35
 70
     1
102
RTVSPost2010Prop36
280
     0
102
RTVSPost2010PropOp36
 70
     1
102
RTVSPost2010Prop37
 90
       50
102
RTVSPost2010PropOp37
 70
     1
102
RTVSPost2010Prop38
140
0.0
102
RTVSPost2010PropOp38
 70
     1
102
RTVSPost2010Prop39
140
1.0
102
RTVSPost2010PropOp39
 70
     1
102
RTVSPost2010Prop40
 90
        0
102
RTVSPost2010PropOp40
 70
     1
102
RTVSPost2010Prop41ColorIndex
 90
       18
102
RTVSPost2010Prop41ColorRGB
 90
        0
102
RTVSPost2010PropOp41
 70
     1
102
RTVSPost2010Prop42
 90
       50
102
RTVSPost2010PropOp42
 70
     1
102
RTVSPost2010Prop43
 90
        3
102
RTVSPost2010PropOp43
 70
     1
102
RTVSPost2010Prop44ColorIndex
 90
        5
102
RTVSPost2010Prop44ColorRGB
 90
      255
102
RTVSPost2010PropOp44
 70
     1
102
RTVSPost2010Prop45
280
     0
102
RTVSPost2010PropOp45
 70
     1
102
RTVSPost2010Prop46
 90
       50
102
RTVSPost2010PropOp46
 70
     1
102
RTVSPost2010Prop47
 90
       50
102
RTVSPost2010PropOp47
 70
     1
102
RTVSPost2010Prop48
 90
       50
102
RTVSPost2010PropOp48
 70
     1
102
RTVSPost2010Prop49
280
     0
102
RTVSPost2010PropOp49
 70
     1
102
RTVSPost2010Prop50
 90
       50
102
RTVSPost2010PropOp50
 70
     1
102
RTVSPost2010Prop51ColorIndex
 90
      256
102
RTVSPost2010Prop51ColorRGB
 90
-16777216
102
RTVSPost2010PropOp51
 70
     0
102
RTVSPost2010Prop52
140
1.0
102
RTVSPost2010PropOp52
 70
     0
102
RTVSPost2010Prop53
 90
        2
102
RTVSPost2010PropOp53
 70
     1
102
RTVSPost2010Prop54
  1
strokes_ogs.tif
102
RTVSPost2010PropOp54
 70
     1
102
RTVSPost2010Prop55
280
     0
102
RTVSPost2010PropOp55
 70
     1
102
RTVSPost2010Prop56
140
1.0
102
RTVSPost2010PropOp56
 70
     1
102
RTVSPost2010Prop57
140
1.0
102
RTVSPost2010PropOp57
 70
     1
102
RTVSPropertyOp0
 70
     1
102
RTVSPropertyOp1
 70
     1
102
RTVSPropertyOp2
 70
     1
102
RTVSPropertyOp3
 70
     1
102
RTVSPropertyOp4
 70
     1
102
RTVSPropertyOp5
 70
     1
102
RTVSPropertyOp6
 70
     1
102
RTVSPropertyOp7
 70
     1
102
RTVSPropertyOp8
 70
     1
102
RTVSPropertyOp9
 70
     1
102
RTVSPropertyOp10
 70
     1
102
RTVSPropertyOp11
 70
     1
102
RTVSPropertyOp12
 70
     1
102
RTVSPropertyOp13
 70
     1
102
RTVSPropertyOp14
 70
     1
102
RTVSPropertyOp15
 70
     1
102
RTVSPropertyOp16
 70
     1
102
RTVSPropertyOp17
 70
     1
102
RTVSPropertyOp18
 70
     1
102
RTVSPropertyOp19
 70
     1
102
RTVSPropertyOp20
 70
     1
102
RTVSPropertyOp21
 70
     1
102
RTVSPropertyOp22
 70
     1
102
RTVSPropertyOp23
 70
     1
102
RTVSPropertyOp24
 70
     1
102
RTVSPropertyOp25
 70
     1
102
RTVSPropertyOp26
 70
     1
102
RTVSPropertyOp27
 70
     1
102
RTVSPropertyOp28
 70
     1
102
RTVSPropertyOp29
 70
     1
102
RTVSPropertyOp30
 70
     1
102
RTVSPropertyOp31
 70
     1
102
RTVSPropertyOp32
 70
     1
102
RTVSPropertyOp33
 70
     1
102
RTVSPropertyOp34
 70
     1
102
RTVSPropertyOp35
 70
     1
102
RTVSPropertyOp36
 70
     1
102
RTVSPropertyOp37
 70
     1
102
RTVSPropertyOp38
 70
     1
102
RTVSPropertyOp39
 70
     1
102
RTVSPropertyOp40
 70
     1
102
RTVSPropertyOp41
 70
     1
102
RTVSPropertyOp42
 70
     1
102
RTVSPropertyOp43
 70
     1
102
RTVSPropertyOp44
 70
     1
102
RTVSPropertyOp45
 70
     1
102
RTVSPropertyOp46
 70
     1
102
RTVSPropertyOp47
 70
     1
102
RTVSPropertyOp48
 70
     1
102
RTVSPropertyOp49
 70
     1
102
RTVSPropertyOp50
 70
     1
102
RTVSPropertyOp51
 70
     0
102
RTVSPropertyOp52
 70
     0
102
RTVSPropertyOp53
 70
     1
102
RTVSPropertyOp54
 70
     1
102
RTVSPropertyOp55
 70
     1
102
RTVSPropertyOp56
 70
     1
102
RTVSPropertyOp57
 70
     1
102
RTVSPropertyOp58
 70
     1
102
RTVSPropertyOp59
 70
     1
102
RTVSPropertyOp60
 70
     1
102
RTVSPropertyOp61
 70
     1
102
RTVSPropertyOp62
 70
     1
  0
XRECORD
  5
12297
102
{ACAD_REACTORS
330
12296
102
}
330
12296
100
AcDbXrecord
280
     1
102
RTVSPost2010Prop28
280
     0
102
RTVSPost2010PropOp28
 70
     1
102
RTVSPost2010Prop29
280
     1
102
RTVSPost2010PropOp29
 70
     1
102
RTVSPost2010Prop30
280
     1
102
RTVSPost2010PropOp30
 70
     1
102
RTVSPost2010Prop31
280
     0
102
RTVSPost2010PropOp31
 70
     1
102
RTVSPost2010Prop32
280
     0
102
RTVSPost2010PropOp32
 70
     1
102
RTVSPost2010Prop33
280
     0
102
RTVSPost2010PropOp33
 70
     1
102
RTVSPost2010Prop34
280
     0
102
RTVSPost2010PropOp34
 70
     1
102
RTVSPost2010Prop35
280
     0
102
RTVSPost2010PropOp35
 70
     1
102
RTVSPost2010Prop36
280
     0
102
RTVSPost2010PropOp36
 70
     1
102
RTVSPost2010Prop37
 90
       50
102
RTVSPost2010PropOp37
 70
     1
102
RTVSPost2010Prop38
140
0.0
102
RTVSPost2010PropOp38
 70
     1
102
RTVSPost2010Prop39
140
1.0
102
RTVSPost2010PropOp39
 70
     1
102
RTVSPost2010Prop40
 90
        0
102
RTVSPost2010PropOp40
 70
     1
102
RTVSPost2010Prop41ColorIndex
 90
       18
102
RTVSPost2010Prop41ColorRGB
 90
        0
102
RTVSPost2010PropOp41
 70
     1
102
RTVSPost2010Prop42
 90
       50
102
RTVSPost2010PropOp42
 70
     1
102
RTVSPost2010Prop43
 90
        3
102
RTVSPost2010PropOp43
 70
     1
102
RTVSPost2010Prop44ColorIndex
 90
        5
102
RTVSPost2010Prop44ColorRGB
 90
      255
102
RTVSPost2010PropOp44
 70
     1
102
RTVSPost2010Prop45
280
     0
102
RTVSPost2010PropOp45
 70
     1
102
RTVSPost2010Prop46
 90
       50
102
RTVSPost2010PropOp46
 70
     1
102
RTVSPost2010Prop47
 90
       50
102
RTVSPost2010PropOp47
 70
     1
102
RTVSPost2010Prop48
 90
       50
102
RTVSPost2010PropOp48
 70
     1
102
RTVSPost2010Prop49
280
     0
102
RTVSPost2010PropOp49
 70
     1
102
RTVSPost2010Prop50
 90
       50
102
RTVSPost2010PropOp50
 70
     1
102
RTVSPost2010Prop51ColorIndex
 90
      256
102
RTVSPost2010Prop51ColorRGB
 90
-16777216
102
RTVSPost2010PropOp51
 70
     0
102
RTVSPost2010Prop52
140
1.0
102
RTVSPost2010PropOp52
 70
     0
102
RTVSPost2010Prop53
 90
        2
102
RTVSPost2010PropOp53
 70
     1
102
RTVSPost2010Prop54
  1
strokes_ogs.tif
102
RTVSPost2010PropOp54
 70
     1
102
RTVSPost2010Prop55
280
     0
102
RTVSPost2010PropOp55
 70
     1
102
RTVSPost2010Prop56
140
1.0
102
RTVSPost2010PropOp56
 70
     1
102
RTVSPost2010Prop57
140
1.0
102
RTVSPost2010PropOp57
 70
     1
102
RTVSPropertyOp0
 70
     1
102
RTVSPropertyOp1
 70
     1
102
RTVSPropertyOp2
 70
     1
102
RTVSPropertyOp3
 70
     1
102
RTVSPropertyOp4
 70
     1
102
RTVSPropertyOp5
 70
     1
102
RTVSPropertyOp6
 70
     1
102
RTVSPropertyOp7
 70
     1
102
RTVSPropertyOp8
 70
     1
102
RTVSPropertyOp9
 70
     1
102
RTVSPropertyOp10
 70
     1
102
RTVSPropertyOp11
 70
     1
102
RTVSPropertyOp12
 70
     1
102
RTVSPropertyOp13
 70
     1
102
RTVSPropertyOp14
 70
     1
102
RTVSPropertyOp15
 70
     1
102
RTVSPropertyOp16
 70
     1
102
RTVSPropertyOp17
 70
     1
102
RTVSPropertyOp18
 70
     1
102
RTVSPropertyOp19
 70
     1
102
RTVSPropertyOp20
 70
     1
102
RTVSPropertyOp21
 70
     1
102
RTVSPropertyOp22
 70
     1
102
RTVSPropertyOp23
 70
     1
102
RTVSPropertyOp24
 70
     1
102
RTVSPropertyOp25
 70
     1
102
RTVSPropertyOp26
 70
     1
102
RTVSPropertyOp27
 70
     1
102
RTVSPropertyOp28
 70
     1
102
RTVSPropertyOp29
 70
     1
102
RTVSPropertyOp30
 70
     1
102
RTVSPropertyOp31
 70
     1
102
RTVSPropertyOp32
 70
     1
102
RTVSPropertyOp33
 70
     1
102
RTVSPropertyOp34
 70
     1
102
RTVSPropertyOp35
 70
     1
102
RTVSPropertyOp36
 70
     1
102
RTVSPropertyOp37
 70
     1
102
RTVSPropertyOp38
 70
     1
102
RTVSPropertyOp39
 70
     1
102
RTVSPropertyOp40
 70
     1
102
RTVSPropertyOp41
 70
     1
102
RTVSPropertyOp42
 70
     1
102
RTVSPropertyOp43
 70
     1
102
RTVSPropertyOp44
 70
     1
102
RTVSPropertyOp45
 70
     1
102
RTVSPropertyOp46
 70
     1
102
RTVSPropertyOp47
 70
     1
102
RTVSPropertyOp48
 70
     1
102
RTVSPropertyOp49
 70
     1
102
RTVSPropertyOp50
 70
     1
102
RTVSPropertyOp51
 70
     0
102
RTVSPropertyOp52
 70
     0
102
RTVSPropertyOp53
 70
     1
102
RTVSPropertyOp54
 70
     1
102
RTVSPropertyOp55
 70
     1
102
RTVSPropertyOp56
 70
     1
102
RTVSPropertyOp57
 70
     1
102
RTVSPropertyOp58
 70
     1
102
RTVSPropertyOp59
 70
     1
102
RTVSPropertyOp60
 70
     1
102
RTVSPropertyOp61
 70
     1
102
RTVSPropertyOp62
 70
     1
  0
XRECORD
  5
122AB
102
{ACAD_REACTORS
330
122AA
102
}
330
122AA
100
AcDbXrecord
280
     1
102
RTVSPost2010Prop28
280
     0
102
RTVSPost2010PropOp28
 70
     1
102
RTVSPost2010Prop29
280
     1
102
RTVSPost2010PropOp29
 70
     1
102
RTVSPost2010Prop30
280
     1
102
RTVSPost2010PropOp30
 70
     1
102
RTVSPost2010Prop31
280
     0
102
RTVSPost2010PropOp31
 70
     1
102
RTVSPost2010Prop32
280
     0
102
RTVSPost2010PropOp32
 70
     1
102
RTVSPost2010Prop33
280
     0
102
RTVSPost2010PropOp33
 70
     1
102
RTVSPost2010Prop34
280
     0
102
RTVSPost2010PropOp34
 70
     1
102
RTVSPost2010Prop35
280
     0
102
RTVSPost2010PropOp35
 70
     1
102
RTVSPost2010Prop36
280
     0
102
RTVSPost2010PropOp36
 70
     1
102
RTVSPost2010Prop37
 90
       50
102
RTVSPost2010PropOp37
 70
     1
102
RTVSPost2010Prop38
140
0.0
102
RTVSPost2010PropOp38
 70
     1
102
RTVSPost2010Prop39
140
1.0
102
RTVSPost2010PropOp39
 70
     1
102
RTVSPost2010Prop40
 90
        0
102
RTVSPost2010PropOp40
 70
     1
102
RTVSPost2010Prop41ColorIndex
 90
       18
102
RTVSPost2010Prop41ColorRGB
 90
        0
102
RTVSPost2010PropOp41
 70
     1
102
RTVSPost2010Prop42
 90
       50
102
RTVSPost2010PropOp42
 70
     1
102
RTVSPost2010Prop43
 90
        3
102
RTVSPost2010PropOp43
 70
     1
102
RTVSPost2010Prop44ColorIndex
 90
        5
102
RTVSPost2010Prop44ColorRGB
 90
      255
102
RTVSPost2010PropOp44
 70
     1
102
RTVSPost2010Prop45
280
     0
102
RTVSPost2010PropOp45
 70
     1
102
RTVSPost2010Prop46
 90
       50
102
RTVSPost2010PropOp46
 70
     1
102
RTVSPost2010Prop47
 90
       50
102
RTVSPost2010PropOp47
 70
     1
102
RTVSPost2010Prop48
 90
       50
102
RTVSPost2010PropOp48
 70
     1
102
RTVSPost2010Prop49
280
     0
102
RTVSPost2010PropOp49
 70
     1
102
RTVSPost2010Prop50
 90
       50
102
RTVSPost2010PropOp50
 70
     1
102
RTVSPost2010Prop51ColorIndex
 90
      256
102
RTVSPost2010Prop51ColorRGB
 90
-16777216
102
RTVSPost2010PropOp51
 70
     0
102
RTVSPost2010Prop52
140
1.0
102
RTVSPost2010PropOp52
 70
     0
102
RTVSPost2010Prop53
 90
        2
102
RTVSPost2010PropOp53
 70
     1
102
RTVSPost2010Prop54
  1
strokes_ogs.tif
102
RTVSPost2010PropOp54
 70
     1
102
RTVSPost2010Prop55
280
     0
102
RTVSPost2010PropOp55
 70
     1
102
RTVSPost2010Prop56
140
1.0
102
RTVSPost2010PropOp56
 70
     1
102
RTVSPost2010Prop57
140
1.0
102
RTVSPost2010PropOp57
 70
     1
102
RTVSPropertyOp0
 70
     0
102
RTVSPropertyOp1
 70
     0
102
RTVSPropertyOp2
 70
     0
102
RTVSPropertyOp3
 70
     0
102
RTVSPropertyOp4
 70
     0
102
RTVSPropertyOp5
 70
     0
102
RTVSPropertyOp6
 70
     0
102
RTVSPropertyOp7
 70
     0
102
RTVSPropertyOp8
 70
     0
102
RTVSPropertyOp9
 70
     0
102
RTVSPropertyOp10
 70
     0
102
RTVSPropertyOp11
 70
     0
102
RTVSPropertyOp12
 70
     0
102
RTVSPropertyOp13
 70
     0
102
RTVSPropertyOp14
 70
     2
102
RTVSPropertyOp15
 70
     0
102
RTVSPropertyOp16
 70
     0
102
RTVSPropertyOp17
 70
     0
102
RTVSPropertyOp18
 70
     0
102
RTVSPropertyOp19
 70
     0
102
RTVSPropertyOp20
 70
     0
102
RTVSPropertyOp21
 70
     0
102
RTVSPropertyOp22
 70
     0
102
RTVSPropertyOp23
 70
     0
102
RTVSPropertyOp24
 70
     0
102
RTVSPropertyOp25
 70
     0
102
RTVSPropertyOp26
 70
     0
102
RTVSPropertyOp27
 70
     0
102
RTVSPropertyOp28
 70
     1
102
RTVSPropertyOp29
 70
     1
102
RTVSPropertyOp30
 70
     1
102
RTVSPropertyOp31
 70
     1
102
RTVSPropertyOp32
 70
     1
102
RTVSPropertyOp33
 70
     1
102
RTVSPropertyOp34
 70
     1
102
RTVSPropertyOp35
 70
     1
102
RTVSPropertyOp36
 70
     1
102
RTVSPropertyOp37
 70
     1
102
RTVSPropertyOp38
 70
     1
102
RTVSPropertyOp39
 70
     1
102
RTVSPropertyOp40
 70
     1
102
RTVSPropertyOp41
 70
     1
102
RTVSPropertyOp42
 70
     1
102
RTVSPropertyOp43
 70
     1
102
RTVSPropertyOp44
 70
     1
102
RTVSPropertyOp45
 70
     1
102
RTVSPropertyOp46
 70
     1
102
RTVSPropertyOp47
 70
     1
102
RTVSPropertyOp48
 70
     1
102
RTVSPropertyOp49
 70
     1
102
RTVSPropertyOp50
 70
     1
102
RTVSPropertyOp51
 70
     0
102
RTVSPropertyOp52
 70
     0
102
RTVSPropertyOp53
 70
     1
102
RTVSPropertyOp54
 70
     1
102
RTVSPropertyOp55
 70
     1
102
RTVSPropertyOp56
 70
     1
102
RTVSPropertyOp57
 70
     1
102
RTVSPropertyOp58
 70
     1
102
RTVSPropertyOp59
 70
     1
102
RTVSPropertyOp60
 70
     1
102
RTVSPropertyOp61
 70
     1
102
RTVSPropertyOp62
 70
     1
  0
XRECORD
  5
122A3
102
{ACAD_REACTORS
330
122A2
102
}
330
122A2
100
AcDbXrecord
280
     1
102
RTVSPost2010Prop28
280
     0
102
RTVSPost2010PropOp28
 70
     1
102
RTVSPost2010Prop29
280
     1
102
RTVSPost2010PropOp29
 70
     1
102
RTVSPost2010Prop30
280
     1
102
RTVSPost2010PropOp30
 70
     1
102
RTVSPost2010Prop31
280
     0
102
RTVSPost2010PropOp31
 70
     1
102
RTVSPost2010Prop32
280
     0
102
RTVSPost2010PropOp32
 70
     1
102
RTVSPost2010Prop33
280
     0
102
RTVSPost2010PropOp33
 70
     1
102
RTVSPost2010Prop34
280
     0
102
RTVSPost2010PropOp34
 70
     1
102
RTVSPost2010Prop35
280
     0
102
RTVSPost2010PropOp35
 70
     1
102
RTVSPost2010Prop36
280
     0
102
RTVSPost2010PropOp36
 70
     1
102
RTVSPost2010Prop37
 90
       50
102
RTVSPost2010PropOp37
 70
     1
102
RTVSPost2010Prop38
140
0.0
102
RTVSPost2010PropOp38
 70
     1
102
RTVSPost2010Prop39
140
1.0
102
RTVSPost2010PropOp39
 70
     1
102
RTVSPost2010Prop40
 90
        0
102
RTVSPost2010PropOp40
 70
     1
102
RTVSPost2010Prop41ColorIndex
 90
       18
102
RTVSPost2010Prop41ColorRGB
 90
        0
102
RTVSPost2010PropOp41
 70
     1
102
RTVSPost2010Prop42
 90
       50
102
RTVSPost2010PropOp42
 70
     1
102
RTVSPost2010Prop43
 90
        3
102
RTVSPost2010PropOp43
 70
     1
102
RTVSPost2010Prop44ColorIndex
 90
        5
102
RTVSPost2010Prop44ColorRGB
 90
      255
102
RTVSPost2010PropOp44
 70
     1
102
RTVSPost2010Prop45
280
     0
102
RTVSPost2010PropOp45
 70
     1
102
RTVSPost2010Prop46
 90
       50
102
RTVSPost2010PropOp46
 70
     1
102
RTVSPost2010Prop47
 90
       50
102
RTVSPost2010PropOp47
 70
     1
102
RTVSPost2010Prop48
 90
       50
102
RTVSPost2010PropOp48
 70
     1
102
RTVSPost2010Prop49
280
     0
102
RTVSPost2010PropOp49
 70
     1
102
RTVSPost2010Prop50
 90
       50
102
RTVSPost2010PropOp50
 70
     1
102
RTVSPost2010Prop51ColorIndex
 90
      256
102
RTVSPost2010Prop51ColorRGB
 90
-16777216
102
RTVSPost2010PropOp51
 70
     0
102
RTVSPost2010Prop52
140
1.0
102
RTVSPost2010PropOp52
 70
     0
102
RTVSPost2010Prop53
 90
        2
102
RTVSPost2010PropOp53
 70
     1
102
RTVSPost2010Prop54
  1
strokes_ogs.tif
102
RTVSPost2010PropOp54
 70
     1
102
RTVSPost2010Prop55
280
     0
102
RTVSPost2010PropOp55
 70
     1
102
RTVSPost2010Prop56
140
1.0
102
RTVSPost2010PropOp56
 70
     1
102
RTVSPost2010Prop57
140
1.0
102
RTVSPost2010PropOp57
 70
     1
102
RTVSPropertyOp0
 70
     1
102
RTVSPropertyOp1
 70
     1
102
RTVSPropertyOp2
 70
     1
102
RTVSPropertyOp3
 70
     1
102
RTVSPropertyOp4
 70
     1
102
RTVSPropertyOp5
 70
     1
102
RTVSPropertyOp6
 70
     1
102
RTVSPropertyOp7
 70
     1
102
RTVSPropertyOp8
 70
     1
102
RTVSPropertyOp9
 70
     1
102
RTVSPropertyOp10
 70
     1
102
RTVSPropertyOp11
 70
     1
102
RTVSPropertyOp12
 70
     1
102
RTVSPropertyOp13
 70
     1
102
RTVSPropertyOp14
 70
     1
102
RTVSPropertyOp15
 70
     1
102
RTVSPropertyOp16
 70
     1
102
RTVSPropertyOp17
 70
     1
102
RTVSPropertyOp18
 70
     1
102
RTVSPropertyOp19
 70
     1
102
RTVSPropertyOp20
 70
     1
102
RTVSPropertyOp21
 70
     1
102
RTVSPropertyOp22
 70
     1
102
RTVSPropertyOp23
 70
     1
102
RTVSPropertyOp24
 70
     1
102
RTVSPropertyOp25
 70
     1
102
RTVSPropertyOp26
 70
     1
102
RTVSPropertyOp27
 70
     1
102
RTVSPropertyOp28
 70
     1
102
RTVSPropertyOp29
 70
     1
102
RTVSPropertyOp30
 70
     1
102
RTVSPropertyOp31
 70
     1
102
RTVSPropertyOp32
 70
     1
102
RTVSPropertyOp33
 70
     1
102
RTVSPropertyOp34
 70
     1
102
RTVSPropertyOp35
 70
     1
102
RTVSPropertyOp36
 70
     1
102
RTVSPropertyOp37
 70
     1
102
RTVSPropertyOp38
 70
     1
102
RTVSPropertyOp39
 70
     1
102
RTVSPropertyOp40
 70
     1
102
RTVSPropertyOp41
 70
     1
102
RTVSPropertyOp42
 70
     1
102
RTVSPropertyOp43
 70
     1
102
RTVSPropertyOp44
 70
     1
102
RTVSPropertyOp45
 70
     1
102
RTVSPropertyOp46
 70
     1
102
RTVSPropertyOp47
 70
     1
102
RTVSPropertyOp48
 70
     1
102
RTVSPropertyOp49
 70
     1
102
RTVSPropertyOp50
 70
     1
102
RTVSPropertyOp51
 70
     0
102
RTVSPropertyOp52
 70
     0
102
RTVSPropertyOp53
 70
     1
102
RTVSPropertyOp54
 70
     1
102
RTVSPropertyOp55
 70
     1
102
RTVSPropertyOp56
 70
     1
102
RTVSPropertyOp57
 70
     1
102
RTVSPropertyOp58
 70
     1
102
RTVSPropertyOp59
 70
     1
102
RTVSPropertyOp60
 70
     1
102
RTVSPropertyOp61
 70
     1
102
RTVSPropertyOp62
 70
     1
  0
XRECORD
  5
122AD
102
{ACAD_REACTORS
330
122AC
102
}
330
122AC
100
AcDbXrecord
280
     1
102
RTVSPost2010Prop28
280
     0
102
RTVSPost2010PropOp28
 70
     1
102
RTVSPost2010Prop29
280
     1
102
RTVSPost2010PropOp29
 70
     1
102
RTVSPost2010Prop30
280
     1
102
RTVSPost2010PropOp30
 70
     1
102
RTVSPost2010Prop31
280
     0
102
RTVSPost2010PropOp31
 70
     1
102
RTVSPost2010Prop32
280
     0
102
RTVSPost2010PropOp32
 70
     1
102
RTVSPost2010Prop33
280
     0
102
RTVSPost2010PropOp33
 70
     1
102
RTVSPost2010Prop34
280
     0
102
RTVSPost2010PropOp34
 70
     1
102
RTVSPost2010Prop35
280
     0
102
RTVSPost2010PropOp35
 70
     1
102
RTVSPost2010Prop36
280
     0
102
RTVSPost2010PropOp36
 70
     1
102
RTVSPost2010Prop37
 90
       50
102
RTVSPost2010PropOp37
 70
     1
102
RTVSPost2010Prop38
140
0.0
102
RTVSPost2010PropOp38
 70
     1
102
RTVSPost2010Prop39
140
1.0
102
RTVSPost2010PropOp39
 70
     1
102
RTVSPost2010Prop40
 90
        0
102
RTVSPost2010PropOp40
 70
     1
102
RTVSPost2010Prop41ColorIndex
 90
       18
102
RTVSPost2010Prop41ColorRGB
 90
        0
102
RTVSPost2010PropOp41
 70
     1
102
RTVSPost2010Prop42
 90
       50
102
RTVSPost2010PropOp42
 70
     1
102
RTVSPost2010Prop43
 90
        3
102
RTVSPost2010PropOp43
 70
     1
102
RTVSPost2010Prop44ColorIndex
 90
        5
102
RTVSPost2010Prop44ColorRGB
 90
      255
102
RTVSPost2010PropOp44
 70
     1
102
RTVSPost2010Prop45
280
     0
102
RTVSPost2010PropOp45
 70
     1
102
RTVSPost2010Prop46
 90
       50
102
RTVSPost2010PropOp46
 70
     1
102
RTVSPost2010Prop47
 90
       50
102
RTVSPost2010PropOp47
 70
     1
102
RTVSPost2010Prop48
 90
       50
102
RTVSPost2010PropOp48
 70
     1
102
RTVSPost2010Prop49
280
     0
102
RTVSPost2010PropOp49
 70
     1
102
RTVSPost2010Prop50
 90
       50
102
RTVSPost2010PropOp50
 70
     1
102
RTVSPost2010Prop51ColorIndex
 90
      256
102
RTVSPost2010Prop51ColorRGB
 90
-16777216
102
RTVSPost2010PropOp51
 70
     0
102
RTVSPost2010Prop52
140
1.0
102
RTVSPost2010PropOp52
 70
     0
102
RTVSPost2010Prop53
 90
        2
102
RTVSPost2010PropOp53
 70
     1
102
RTVSPost2010Prop54
  1
strokes_ogs.tif
102
RTVSPost2010PropOp54
 70
     1
102
RTVSPost2010Prop55
280
     0
102
RTVSPost2010PropOp55
 70
     1
102
RTVSPost2010Prop56
140
1.0
102
RTVSPost2010PropOp56
 70
     1
102
RTVSPost2010Prop57
140
1.0
102
RTVSPost2010PropOp57
 70
     1
102
RTVSPropertyOp0
 70
     0
102
RTVSPropertyOp1
 70
     0
102
RTVSPropertyOp2
 70
     0
102
RTVSPropertyOp3
 70
     0
102
RTVSPropertyOp4
 70
     0
102
RTVSPropertyOp5
 70
     0
102
RTVSPropertyOp6
 70
     0
102
RTVSPropertyOp7
 70
     0
102
RTVSPropertyOp8
 70
     0
102
RTVSPropertyOp9
 70
     0
102
RTVSPropertyOp10
 70
     0
102
RTVSPropertyOp11
 70
     0
102
RTVSPropertyOp12
 70
     0
102
RTVSPropertyOp13
 70
     0
102
RTVSPropertyOp14
 70
     2
102
RTVSPropertyOp15
 70
     0
102
RTVSPropertyOp16
 70
     0
102
RTVSPropertyOp17
 70
     0
102
RTVSPropertyOp18
 70
     0
102
RTVSPropertyOp19
 70
     0
102
RTVSPropertyOp20
 70
     0
102
RTVSPropertyOp21
 70
     0
102
RTVSPropertyOp22
 70
     0
102
RTVSPropertyOp23
 70
     0
102
RTVSPropertyOp24
 70
     0
102
RTVSPropertyOp25
 70
     0
102
RTVSPropertyOp26
 70
     0
102
RTVSPropertyOp27
 70
     0
102
RTVSPropertyOp28
 70
     1
102
RTVSPropertyOp29
 70
     1
102
RTVSPropertyOp30
 70
     1
102
RTVSPropertyOp31
 70
     1
102
RTVSPropertyOp32
 70
     1
102
RTVSPropertyOp33
 70
     1
102
RTVSPropertyOp34
 70
     1
102
RTVSPropertyOp35
 70
     1
102
RTVSPropertyOp36
 70
     1
102
RTVSPropertyOp37
 70
     1
102
RTVSPropertyOp38
 70
     1
102
RTVSPropertyOp39
 70
     1
102
RTVSPropertyOp40
 70
     1
102
RTVSPropertyOp41
 70
     1
102
RTVSPropertyOp42
 70
     1
102
RTVSPropertyOp43
 70
     1
102
RTVSPropertyOp44
 70
     1
102
RTVSPropertyOp45
 70
     1
102
RTVSPropertyOp46
 70
     1
102
RTVSPropertyOp47
 70
     1
102
RTVSPropertyOp48
 70
     1
102
RTVSPropertyOp49
 70
     1
102
RTVSPropertyOp50
 70
     1
102
RTVSPropertyOp51
 70
     0
102
RTVSPropertyOp52
 70
     0
102
RTVSPropertyOp53
 70
     1
102
RTVSPropertyOp54
 70
     1
102
RTVSPropertyOp55
 70
     1
102
RTVSPropertyOp56
 70
     1
102
RTVSPropertyOp57
 70
     1
102
RTVSPropertyOp58
 70
     1
102
RTVSPropertyOp59
 70
     1
102
RTVSPropertyOp60
 70
     1
102
RTVSPropertyOp61
 70
     1
102
RTVSPropertyOp62
 70
     1
  0
XRECORD
  5
1229B
102
{ACAD_REACTORS
330
1229A
102
}
330
1229A
100
AcDbXrecord
280
     1
102
RTVSPost2010Prop28
280
     0
102
RTVSPost2010PropOp28
 70
     1
102
RTVSPost2010Prop29
280
     1
102
RTVSPost2010PropOp29
 70
     1
102
RTVSPost2010Prop30
280
     1
102
RTVSPost2010PropOp30
 70
     1
102
RTVSPost2010Prop31
280
     0
102
RTVSPost2010PropOp31
 70
     1
102
RTVSPost2010Prop32
280
     0
102
RTVSPost2010PropOp32
 70
     1
102
RTVSPost2010Prop33
280
     0
102
RTVSPost2010PropOp33
 70
     1
102
RTVSPost2010Prop34
280
     0
102
RTVSPost2010PropOp34
 70
     1
102
RTVSPost2010Prop35
280
     0
102
RTVSPost2010PropOp35
 70
     1
102
RTVSPost2010Prop36
280
     0
102
RTVSPost2010PropOp36
 70
     1
102
RTVSPost2010Prop37
 90
       50
102
RTVSPost2010PropOp37
 70
     1
102
RTVSPost2010Prop38
140
0.0
102
RTVSPost2010PropOp38
 70
     1
102
RTVSPost2010Prop39
140
1.0
102
RTVSPost2010PropOp39
 70
     1
102
RTVSPost2010Prop40
 90
        0
102
RTVSPost2010PropOp40
 70
     1
102
RTVSPost2010Prop41ColorIndex
 90
       18
102
RTVSPost2010Prop41ColorRGB
 90
        0
102
RTVSPost2010PropOp41
 70
     1
102
RTVSPost2010Prop42
 90
       50
102
RTVSPost2010PropOp42
 70
     1
102
RTVSPost2010Prop43
 90
        3
102
RTVSPost2010PropOp43
 70
     1
102
RTVSPost2010Prop44ColorIndex
 90
        5
102
RTVSPost2010Prop44ColorRGB
 90
      255
102
RTVSPost2010PropOp44
 70
     1
102
RTVSPost2010Prop45
280
     0
102
RTVSPost2010PropOp45
 70
     1
102
RTVSPost2010Prop46
 90
       50
102
RTVSPost2010PropOp46
 70
     1
102
RTVSPost2010Prop47
 90
       50
102
RTVSPost2010PropOp47
 70
     1
102
RTVSPost2010Prop48
 90
       50
102
RTVSPost2010PropOp48
 70
     1
102
RTVSPost2010Prop49
280
     0
102
RTVSPost2010PropOp49
 70
     1
102
RTVSPost2010Prop50
 90
       50
102
RTVSPost2010PropOp50
 70
     1
102
RTVSPost2010Prop51ColorIndex
 90
      256
102
RTVSPost2010Prop51ColorRGB
 90
-16777216
102
RTVSPost2010PropOp51
 70
     0
102
RTVSPost2010Prop52
140
1.0
102
RTVSPost2010PropOp52
 70
     0
102
RTVSPost2010Prop53
 90
        2
102
RTVSPost2010PropOp53
 70
     1
102
RTVSPost2010Prop54
  1
strokes_ogs.tif
102
RTVSPost2010PropOp54
 70
     1
102
RTVSPost2010Prop55
280
     0
102
RTVSPost2010PropOp55
 70
     1
102
RTVSPost2010Prop56
140
1.0
102
RTVSPost2010PropOp56
 70
     1
102
RTVSPost2010Prop57
140
1.0
102
RTVSPost2010PropOp57
 70
     1
102
RTVSPropertyOp0
 70
     1
102
RTVSPropertyOp1
 70
     1
102
RTVSPropertyOp2
 70
     1
102
RTVSPropertyOp3
 70
     1
102
RTVSPropertyOp4
 70
     1
102
RTVSPropertyOp5
 70
     1
102
RTVSPropertyOp6
 70
     1
102
RTVSPropertyOp7
 70
     1
102
RTVSPropertyOp8
 70
     1
102
RTVSPropertyOp9
 70
     1
102
RTVSPropertyOp10
 70
     1
102
RTVSPropertyOp11
 70
     1
102
RTVSPropertyOp12
 70
     1
102
RTVSPropertyOp13
 70
     1
102
RTVSPropertyOp14
 70
     1
102
RTVSPropertyOp15
 70
     1
102
RTVSPropertyOp16
 70
     1
102
RTVSPropertyOp17
 70
     1
102
RTVSPropertyOp18
 70
     1
102
RTVSPropertyOp19
 70
     1
102
RTVSPropertyOp20
 70
     1
102
RTVSPropertyOp21
 70
     1
102
RTVSPropertyOp22
 70
     1
102
RTVSPropertyOp23
 70
     1
102
RTVSPropertyOp24
 70
     1
102
RTVSPropertyOp25
 70
     1
102
RTVSPropertyOp26
 70
     1
102
RTVSPropertyOp27
 70
     1
102
RTVSPropertyOp28
 70
     1
102
RTVSPropertyOp29
 70
     1
102
RTVSPropertyOp30
 70
     1
102
RTVSPropertyOp31
 70
     1
102
RTVSPropertyOp32
 70
     1
102
RTVSPropertyOp33
 70
     1
102
RTVSPropertyOp34
 70
     1
102
RTVSPropertyOp35
 70
     1
102
RTVSPropertyOp36
 70
     1
102
RTVSPropertyOp37
 70
     1
102
RTVSPropertyOp38
 70
     1
102
RTVSPropertyOp39
 70
     1
102
RTVSPropertyOp40
 70
     1
102
RTVSPropertyOp41
 70
     1
102
RTVSPropertyOp42
 70
     1
102
RTVSPropertyOp43
 70
     1
102
RTVSPropertyOp44
 70
     1
102
RTVSPropertyOp45
 70
     1
102
RTVSPropertyOp46
 70
     1
102
RTVSPropertyOp47
 70
     1
102
RTVSPropertyOp48
 70
     1
102
RTVSPropertyOp49
 70
     1
102
RTVSPropertyOp50
 70
     1
102
RTVSPropertyOp51
 70
     0
102
RTVSPropertyOp52
 70
     0
102
RTVSPropertyOp53
 70
     1
102
RTVSPropertyOp54
 70
     1
102
RTVSPropertyOp55
 70
     1
102
RTVSPropertyOp56
 70
     1
102
RTVSPropertyOp57
 70
     1
102
RTVSPropertyOp58
 70
     1
102
RTVSPropertyOp59
 70
     1
102
RTVSPropertyOp60
 70
     1
102
RTVSPropertyOp61
 70
     1
102
RTVSPropertyOp62
 70
     1
  0
XRECORD
  5
122B9
102
{ACAD_REACTORS
330
122B8
102
}
330
122B8
100
AcDbXrecord
280
     1
102
RTVSPost2010Prop28
280
     0
102
RTVSPost2010PropOp28
 70
     1
102
RTVSPost2010Prop29
280
     1
102
RTVSPost2010PropOp29
 70
     1
102
RTVSPost2010Prop30
280
     1
102
RTVSPost2010PropOp30
 70
     1
102
RTVSPost2010Prop31
280
     0
102
RTVSPost2010PropOp31
 70
     1
102
RTVSPost2010Prop32
280
     0
102
RTVSPost2010PropOp32
 70
     1
102
RTVSPost2010Prop33
280
     0
102
RTVSPost2010PropOp33
 70
     1
102
RTVSPost2010Prop34
280
     0
102
RTVSPost2010PropOp34
 70
     1
102
RTVSPost2010Prop35
280
     0
102
RTVSPost2010PropOp35
 70
     1
102
RTVSPost2010Prop36
280
     0
102
RTVSPost2010PropOp36
 70
     1
102
RTVSPost2010Prop37
 90
       50
102
RTVSPost2010PropOp37
 70
     1
102
RTVSPost2010Prop38
140
0.0
102
RTVSPost2010PropOp38
 70
     1
102
RTVSPost2010Prop39
140
1.0
102
RTVSPost2010PropOp39
 70
     1
102
RTVSPost2010Prop40
 90
        0
102
RTVSPost2010PropOp40
 70
     1
102
RTVSPost2010Prop41ColorIndex
 90
       18
102
RTVSPost2010Prop41ColorRGB
 90
        0
102
RTVSPost2010PropOp41
 70
     1
102
RTVSPost2010Prop42
 90
       50
102
RTVSPost2010PropOp42
 70
     1
102
RTVSPost2010Prop43
 90
        3
102
RTVSPost2010PropOp43
 70
     1
102
RTVSPost2010Prop44ColorIndex
 90
        5
102
RTVSPost2010Prop44ColorRGB
 90
      255
102
RTVSPost2010PropOp44
 70
     1
102
RTVSPost2010Prop45
280
     0
102
RTVSPost2010PropOp45
 70
     1
102
RTVSPost2010Prop46
 90
       50
102
RTVSPost2010PropOp46
 70
     1
102
RTVSPost2010Prop47
 90
       50
102
RTVSPost2010PropOp47
 70
     1
102
RTVSPost2010Prop48
 90
       50
102
RTVSPost2010PropOp48
 70
     1
102
RTVSPost2010Prop49
280
     0
102
RTVSPost2010PropOp49
 70
     1
102
RTVSPost2010Prop50
 90
       50
102
RTVSPost2010PropOp50
 70
     1
102
RTVSPost2010Prop51ColorIndex
 90
      256
102
RTVSPost2010Prop51ColorRGB
 90
-16777216
102
RTVSPost2010PropOp51
 70
     0
102
RTVSPost2010Prop52
140
1.0
102
RTVSPost2010PropOp52
 70
     0
102
RTVSPost2010Prop53
 90
        2
102
RTVSPost2010PropOp53
 70
     1
102
RTVSPost2010Prop54
  1
strokes_ogs.tif
102
RTVSPost2010PropOp54
 70
     1
102
RTVSPost2010Prop55
280
     0
102
RTVSPost2010PropOp55
 70
     1
102
RTVSPost2010Prop56
140
1.0
102
RTVSPost2010PropOp56
 70
     1
102
RTVSPost2010Prop57
140
1.0
102
RTVSPost2010PropOp57
 70
     1
102
RTVSPropertyOp0
 70
     1
102
RTVSPropertyOp1
 70
     1
102
RTVSPropertyOp2
 70
     1
102
RTVSPropertyOp3
 70
     1
102
RTVSPropertyOp4
 70
     1
102
RTVSPropertyOp5
 70
     1
102
RTVSPropertyOp6
 70
     1
102
RTVSPropertyOp7
 70
     1
102
RTVSPropertyOp8
 70
     1
102
RTVSPropertyOp9
 70
     1
102
RTVSPropertyOp10
 70
     1
102
RTVSPropertyOp11
 70
     1
102
RTVSPropertyOp12
 70
     1
102
RTVSPropertyOp13
 70
     1
102
RTVSPropertyOp14
 70
     1
102
RTVSPropertyOp15
 70
     1
102
RTVSPropertyOp16
 70
     1
102
RTVSPropertyOp17
 70
     1
102
RTVSPropertyOp18
 70
     1
102
RTVSPropertyOp19
 70
     1
102
RTVSPropertyOp20
 70
     1
102
RTVSPropertyOp21
 70
     1
102
RTVSPropertyOp22
 70
     1
102
RTVSPropertyOp23
 70
     1
102
RTVSPropertyOp24
 70
     1
102
RTVSPropertyOp25
 70
     1
102
RTVSPropertyOp26
 70
     1
102
RTVSPropertyOp27
 70
     1
102
RTVSPropertyOp28
 70
     1
102
RTVSPropertyOp29
 70
     1
102
RTVSPropertyOp30
 70
     1
102
RTVSPropertyOp31
 70
     1
102
RTVSPropertyOp32
 70
     1
102
RTVSPropertyOp33
 70
     1
102
RTVSPropertyOp34
 70
     1
102
RTVSPropertyOp35
 70
     1
102
RTVSPropertyOp36
 70
     1
102
RTVSPropertyOp37
 70
     1
102
RTVSPropertyOp38
 70
     1
102
RTVSPropertyOp39
 70
     1
102
RTVSPropertyOp40
 70
     1
102
RTVSPropertyOp41
 70
     1
102
RTVSPropertyOp42
 70
     1
102
RTVSPropertyOp43
 70
     1
102
RTVSPropertyOp44
 70
     1
102
RTVSPropertyOp45
 70
     1
102
RTVSPropertyOp46
 70
     1
102
RTVSPropertyOp47
 70
     1
102
RTVSPropertyOp48
 70
     1
102
RTVSPropertyOp49
 70
     1
102
RTVSPropertyOp50
 70
     1
102
RTVSPropertyOp51
 70
     0
102
RTVSPropertyOp52
 70
     0
102
RTVSPropertyOp53
 70
     1
102
RTVSPropertyOp54
 70
     1
102
RTVSPropertyOp55
 70
     1
102
RTVSPropertyOp56
 70
     1
102
RTVSPropertyOp57
 70
     1
102
RTVSPropertyOp58
 70
     1
102
RTVSPropertyOp59
 70
     1
102
RTVSPropertyOp60
 70
     1
102
RTVSPropertyOp61
 70
     1
102
RTVSPropertyOp62
 70
     1
  0
XRECORD
  5
122B7
102
{ACAD_REACTORS
330
122B6
102
}
330
122B6
100
AcDbXrecord
280
     1
102
RTVSPost2010Prop28
280
     0
102
RTVSPost2010PropOp28
 70
     1
102
RTVSPost2010Prop29
280
     1
102
RTVSPost2010PropOp29
 70
     1
102
RTVSPost2010Prop30
280
     1
102
RTVSPost2010PropOp30
 70
     1
102
RTVSPost2010Prop31
280
     0
102
RTVSPost2010PropOp31
 70
     1
102
RTVSPost2010Prop32
280
     0
102
RTVSPost2010PropOp32
 70
     1
102
RTVSPost2010Prop33
280
     0
102
RTVSPost2010PropOp33
 70
     1
102
RTVSPost2010Prop34
280
     0
102
RTVSPost2010PropOp34
 70
     1
102
RTVSPost2010Prop35
280
     0
102
RTVSPost2010PropOp35
 70
     1
102
RTVSPost2010Prop36
280
     0
102
RTVSPost2010PropOp36
 70
     1
102
RTVSPost2010Prop37
 90
       50
102
RTVSPost2010PropOp37
 70
     1
102
RTVSPost2010Prop38
140
0.0
102
RTVSPost2010PropOp38
 70
     1
102
RTVSPost2010Prop39
140
1.0
102
RTVSPost2010PropOp39
 70
     1
102
RTVSPost2010Prop40
 90
        0
102
RTVSPost2010PropOp40
 70
     1
102
RTVSPost2010Prop41ColorIndex
 90
       18
102
RTVSPost2010Prop41ColorRGB
 90
        0
102
RTVSPost2010PropOp41
 70
     1
102
RTVSPost2010Prop42
 90
       50
102
RTVSPost2010PropOp42
 70
     1
102
RTVSPost2010Prop43
 90
        3
102
RTVSPost2010PropOp43
 70
     1
102
RTVSPost2010Prop44ColorIndex
 90
        5
102
RTVSPost2010Prop44ColorRGB
 90
      255
102
RTVSPost2010PropOp44
 70
     1
102
RTVSPost2010Prop45
280
     0
102
RTVSPost2010PropOp45
 70
     1
102
RTVSPost2010Prop46
 90
       50
102
RTVSPost2010PropOp46
 70
     1
102
RTVSPost2010Prop47
 90
       50
102
RTVSPost2010PropOp47
 70
     1
102
RTVSPost2010Prop48
 90
       50
102
RTVSPost2010PropOp48
 70
     1
102
RTVSPost2010Prop49
280
     0
102
RTVSPost2010PropOp49
 70
     1
102
RTVSPost2010Prop50
 90
       50
102
RTVSPost2010PropOp50
 70
     1
102
RTVSPost2010Prop51ColorIndex
 90
      256
102
RTVSPost2010Prop51ColorRGB
 90
-16777216
102
RTVSPost2010PropOp51
 70
     0
102
RTVSPost2010Prop52
140
1.0
102
RTVSPost2010PropOp52
 70
     0
102
RTVSPost2010Prop53
 90
        2
102
RTVSPost2010PropOp53
 70
     1
102
RTVSPost2010Prop54
  1
strokes_ogs.tif
102
RTVSPost2010PropOp54
 70
     1
102
RTVSPost2010Prop55
280
     0
102
RTVSPost2010PropOp55
 70
     1
102
RTVSPost2010Prop56
140
1.0
102
RTVSPost2010PropOp56
 70
     1
102
RTVSPost2010Prop57
140
1.0
102
RTVSPost2010PropOp57
 70
     1
102
RTVSPropertyOp0
 70
     1
102
RTVSPropertyOp1
 70
     1
102
RTVSPropertyOp2
 70
     1
102
RTVSPropertyOp3
 70
     1
102
RTVSPropertyOp4
 70
     1
102
RTVSPropertyOp5
 70
     1
102
RTVSPropertyOp6
 70
     1
102
RTVSPropertyOp7
 70
     1
102
RTVSPropertyOp8
 70
     1
102
RTVSPropertyOp9
 70
     1
102
RTVSPropertyOp10
 70
     1
102
RTVSPropertyOp11
 70
     1
102
RTVSPropertyOp12
 70
     1
102
RTVSPropertyOp13
 70
     1
102
RTVSPropertyOp14
 70
     1
102
RTVSPropertyOp15
 70
     1
102
RTVSPropertyOp16
 70
     1
102
RTVSPropertyOp17
 70
     1
102
RTVSPropertyOp18
 70
     1
102
RTVSPropertyOp19
 70
     1
102
RTVSPropertyOp20
 70
     1
102
RTVSPropertyOp21
 70
     1
102
RTVSPropertyOp22
 70
     1
102
RTVSPropertyOp23
 70
     1
102
RTVSPropertyOp24
 70
     1
102
RTVSPropertyOp25
 70
     1
102
RTVSPropertyOp26
 70
     1
102
RTVSPropertyOp27
 70
     1
102
RTVSPropertyOp28
 70
     1
102
RTVSPropertyOp29
 70
     1
102
RTVSPropertyOp30
 70
     1
102
RTVSPropertyOp31
 70
     1
102
RTVSPropertyOp32
 70
     1
102
RTVSPropertyOp33
 70
     1
102
RTVSPropertyOp34
 70
     1
102
RTVSPropertyOp35
 70
     1
102
RTVSPropertyOp36
 70
     1
102
RTVSPropertyOp37
 70
     1
102
RTVSPropertyOp38
 70
     1
102
RTVSPropertyOp39
 70
     1
102
RTVSPropertyOp40
 70
     1
102
RTVSPropertyOp41
 70
     1
102
RTVSPropertyOp42
 70
     1
102
RTVSPropertyOp43
 70
     1
102
RTVSPropertyOp44
 70
     1
102
RTVSPropertyOp45
 70
     1
102
RTVSPropertyOp46
 70
     1
102
RTVSPropertyOp47
 70
     1
102
RTVSPropertyOp48
 70
     1
102
RTVSPropertyOp49
 70
     1
102
RTVSPropertyOp50
 70
     1
102
RTVSPropertyOp51
 70
     0
102
RTVSPropertyOp52
 70
     0
102
RTVSPropertyOp53
 70
     1
102
RTVSPropertyOp54
 70
     1
102
RTVSPropertyOp55
 70
     1
102
RTVSPropertyOp56
 70
     1
102
RTVSPropertyOp57
 70
     1
102
RTVSPropertyOp58
 70
     1
102
RTVSPropertyOp59
 70
     1
102
RTVSPropertyOp60
 70
     1
102
RTVSPropertyOp61
 70
     1
102
RTVSPropertyOp62
 70
     1
  0
XRECORD
  5
122B1
102
{ACAD_REACTORS
330
122B0
102
}
330
122B0
100
AcDbXrecord
280
     1
102
RTVSPost2010Prop28
280
     0
102
RTVSPost2010PropOp28
 70
     1
102
RTVSPost2010Prop29
280
     1
102
RTVSPost2010PropOp29
 70
     1
102
RTVSPost2010Prop30
280
     1
102
RTVSPost2010PropOp30
 70
     1
102
RTVSPost2010Prop31
280
     0
102
RTVSPost2010PropOp31
 70
     1
102
RTVSPost2010Prop32
280
     0
102
RTVSPost2010PropOp32
 70
     1
102
RTVSPost2010Prop33
280
     0
102
RTVSPost2010PropOp33
 70
     1
102
RTVSPost2010Prop34
280
     0
102
RTVSPost2010PropOp34
 70
     1
102
RTVSPost2010Prop35
280
     0
102
RTVSPost2010PropOp35
 70
     1
102
RTVSPost2010Prop36
280
     0
102
RTVSPost2010PropOp36
 70
     1
102
RTVSPost2010Prop37
 90
       50
102
RTVSPost2010PropOp37
 70
     1
102
RTVSPost2010Prop38
140
0.0
102
RTVSPost2010PropOp38
 70
     1
102
RTVSPost2010Prop39
140
1.0
102
RTVSPost2010PropOp39
 70
     1
102
RTVSPost2010Prop40
 90
        0
102
RTVSPost2010PropOp40
 70
     1
102
RTVSPost2010Prop41ColorIndex
 90
       18
102
RTVSPost2010Prop41ColorRGB
 90
        0
102
RTVSPost2010PropOp41
 70
     1
102
RTVSPost2010Prop42
 90
       50
102
RTVSPost2010PropOp42
 70
     1
102
RTVSPost2010Prop43
 90
        3
102
RTVSPost2010PropOp43
 70
     1
102
RTVSPost2010Prop44ColorIndex
 90
        5
102
RTVSPost2010Prop44ColorRGB
 90
      255
102
RTVSPost2010PropOp44
 70
     1
102
RTVSPost2010Prop45
280
     0
102
RTVSPost2010PropOp45
 70
     1
102
RTVSPost2010Prop46
 90
       50
102
RTVSPost2010PropOp46
 70
     1
102
RTVSPost2010Prop47
 90
       50
102
RTVSPost2010PropOp47
 70
     1
102
RTVSPost2010Prop48
 90
       50
102
RTVSPost2010PropOp48
 70
     1
102
RTVSPost2010Prop49
280
     0
102
RTVSPost2010PropOp49
 70
     1
102
RTVSPost2010Prop50
 90
       50
102
RTVSPost2010PropOp50
 70
     1
102
RTVSPost2010Prop51ColorIndex
 90
      256
102
RTVSPost2010Prop51ColorRGB
 90
-16777216
102
RTVSPost2010PropOp51
 70
     0
102
RTVSPost2010Prop52
140
1.0
102
RTVSPost2010PropOp52
 70
     0
102
RTVSPost2010Prop53
 90
        2
102
RTVSPost2010PropOp53
 70
     1
102
RTVSPost2010Prop54
  1
strokes_ogs.tif
102
RTVSPost2010PropOp54
 70
     1
102
RTVSPost2010Prop55
280
     0
102
RTVSPost2010PropOp55
 70
     1
102
RTVSPost2010Prop56
140
1.0
102
RTVSPost2010PropOp56
 70
     1
102
RTVSPost2010Prop57
140
1.0
102
RTVSPost2010PropOp57
 70
     1
102
RTVSPropertyOp0
 70
     1
102
RTVSPropertyOp1
 70
     1
102
RTVSPropertyOp2
 70
     1
102
RTVSPropertyOp3
 70
     1
102
RTVSPropertyOp4
 70
     1
102
RTVSPropertyOp5
 70
     1
102
RTVSPropertyOp6
 70
     1
102
RTVSPropertyOp7
 70
     1
102
RTVSPropertyOp8
 70
     1
102
RTVSPropertyOp9
 70
     1
102
RTVSPropertyOp10
 70
     1
102
RTVSPropertyOp11
 70
     1
102
RTVSPropertyOp12
 70
     1
102
RTVSPropertyOp13
 70
     1
102
RTVSPropertyOp14
 70
     1
102
RTVSPropertyOp15
 70
     1
102
RTVSPropertyOp16
 70
     1
102
RTVSPropertyOp17
 70
     1
102
RTVSPropertyOp18
 70
     1
102
RTVSPropertyOp19
 70
     1
102
RTVSPropertyOp20
 70
     1
102
RTVSPropertyOp21
 70
     1
102
RTVSPropertyOp22
 70
     1
102
RTVSPropertyOp23
 70
     1
102
RTVSPropertyOp24
 70
     1
102
RTVSPropertyOp25
 70
     1
102
RTVSPropertyOp26
 70
     1
102
RTVSPropertyOp27
 70
     1
102
RTVSPropertyOp28
 70
     1
102
RTVSPropertyOp29
 70
     1
102
RTVSPropertyOp30
 70
     1
102
RTVSPropertyOp31
 70
     1
102
RTVSPropertyOp32
 70
     1
102
RTVSPropertyOp33
 70
     1
102
RTVSPropertyOp34
 70
     1
102
RTVSPropertyOp35
 70
     1
102
RTVSPropertyOp36
 70
     1
102
RTVSPropertyOp37
 70
     1
102
RTVSPropertyOp38
 70
     1
102
RTVSPropertyOp39
 70
     1
102
RTVSPropertyOp40
 70
     1
102
RTVSPropertyOp41
 70
     1
102
RTVSPropertyOp42
 70
     1
102
RTVSPropertyOp43
 70
     1
102
RTVSPropertyOp44
 70
     1
102
RTVSPropertyOp45
 70
     1
102
RTVSPropertyOp46
 70
     1
102
RTVSPropertyOp47
 70
     1
102
RTVSPropertyOp48
 70
     1
102
RTVSPropertyOp49
 70
     1
102
RTVSPropertyOp50
 70
     1
102
RTVSPropertyOp51
 70
     0
102
RTVSPropertyOp52
 70
     0
102
RTVSPropertyOp53
 70
     1
102
RTVSPropertyOp54
 70
     1
102
RTVSPropertyOp55
 70
     1
102
RTVSPropertyOp56
 70
     1
102
RTVSPropertyOp57
 70
     1
102
RTVSPropertyOp58
 70
     1
102
RTVSPropertyOp59
 70
     1
102
RTVSPropertyOp60
 70
     1
102
RTVSPropertyOp61
 70
     1
102
RTVSPropertyOp62
 70
     1
  0
XRECORD
  5
122B3
102
{ACAD_REACTORS
330
122B2
102
}
330
122B2
100
AcDbXrecord
280
     1
102
RTVSPost2010Prop28
280
     0
102
RTVSPost2010PropOp28
 70
     1
102
RTVSPost2010Prop29
280
     1
102
RTVSPost2010PropOp29
 70
     1
102
RTVSPost2010Prop30
280
     1
102
RTVSPost2010PropOp30
 70
     1
102
RTVSPost2010Prop31
280
     0
102
RTVSPost2010PropOp31
 70
     1
102
RTVSPost2010Prop32
280
     0
102
RTVSPost2010PropOp32
 70
     1
102
RTVSPost2010Prop33
280
     0
102
RTVSPost2010PropOp33
 70
     1
102
RTVSPost2010Prop34
280
     0
102
RTVSPost2010PropOp34
 70
     1
102
RTVSPost2010Prop35
280
     0
102
RTVSPost2010PropOp35
 70
     1
102
RTVSPost2010Prop36
280
     0
102
RTVSPost2010PropOp36
 70
     1
102
RTVSPost2010Prop37
 90
       50
102
RTVSPost2010PropOp37
 70
     1
102
RTVSPost2010Prop38
140
0.0
102
RTVSPost2010PropOp38
 70
     1
102
RTVSPost2010Prop39
140
1.0
102
RTVSPost2010PropOp39
 70
     1
102
RTVSPost2010Prop40
 90
        0
102
RTVSPost2010PropOp40
 70
     1
102
RTVSPost2010Prop41ColorIndex
 90
       18
102
RTVSPost2010Prop41ColorRGB
 90
        0
102
RTVSPost2010PropOp41
 70
     1
102
RTVSPost2010Prop42
 90
       50
102
RTVSPost2010PropOp42
 70
     1
102
RTVSPost2010Prop43
 90
        3
102
RTVSPost2010PropOp43
 70
     1
102
RTVSPost2010Prop44ColorIndex
 90
        5
102
RTVSPost2010Prop44ColorRGB
 90
      255
102
RTVSPost2010PropOp44
 70
     1
102
RTVSPost2010Prop45
280
     0
102
RTVSPost2010PropOp45
 70
     1
102
RTVSPost2010Prop46
 90
       50
102
RTVSPost2010PropOp46
 70
     1
102
RTVSPost2010Prop47
 90
       50
102
RTVSPost2010PropOp47
 70
     1
102
RTVSPost2010Prop48
 90
       50
102
RTVSPost2010PropOp48
 70
     1
102
RTVSPost2010Prop49
280
     0
102
RTVSPost2010PropOp49
 70
     1
102
RTVSPost2010Prop50
 90
       50
102
RTVSPost2010PropOp50
 70
     1
102
RTVSPost2010Prop51ColorIndex
 90
      256
102
RTVSPost2010Prop51ColorRGB
 90
-16777216
102
RTVSPost2010PropOp51
 70
     0
102
RTVSPost2010Prop52
140
1.0
102
RTVSPost2010PropOp52
 70
     0
102
RTVSPost2010Prop53
 90
        2
102
RTVSPost2010PropOp53
 70
     1
102
RTVSPost2010Prop54
  1
strokes_ogs.tif
102
RTVSPost2010PropOp54
 70
     1
102
RTVSPost2010Prop55
280
     0
102
RTVSPost2010PropOp55
 70
     1
102
RTVSPost2010Prop56
140
1.0
102
RTVSPost2010PropOp56
 70
     1
102
RTVSPost2010Prop57
140
1.0
102
RTVSPost2010PropOp57
 70
     1
102
RTVSPropertyOp0
 70
     1
102
RTVSPropertyOp1
 70
     1
102
RTVSPropertyOp2
 70
     1
102
RTVSPropertyOp3
 70
     1
102
RTVSPropertyOp4
 70
     1
102
RTVSPropertyOp5
 70
     1
102
RTVSPropertyOp6
 70
     1
102
RTVSPropertyOp7
 70
     1
102
RTVSPropertyOp8
 70
     1
102
RTVSPropertyOp9
 70
     1
102
RTVSPropertyOp10
 70
     1
102
RTVSPropertyOp11
 70
     1
102
RTVSPropertyOp12
 70
     1
102
RTVSPropertyOp13
 70
     1
102
RTVSPropertyOp14
 70
     1
102
RTVSPropertyOp15
 70
     1
102
RTVSPropertyOp16
 70
     1
102
RTVSPropertyOp17
 70
     1
102
RTVSPropertyOp18
 70
     1
102
RTVSPropertyOp19
 70
     1
102
RTVSPropertyOp20
 70
     1
102
RTVSPropertyOp21
 70
     1
102
RTVSPropertyOp22
 70
     1
102
RTVSPropertyOp23
 70
     1
102
RTVSPropertyOp24
 70
     1
102
RTVSPropertyOp25
 70
     1
102
RTVSPropertyOp26
 70
     1
102
RTVSPropertyOp27
 70
     1
102
RTVSPropertyOp28
 70
     1
102
RTVSPropertyOp29
 70
     1
102
RTVSPropertyOp30
 70
     1
102
RTVSPropertyOp31
 70
     1
102
RTVSPropertyOp32
 70
     1
102
RTVSPropertyOp33
 70
     1
102
RTVSPropertyOp34
 70
     1
102
RTVSPropertyOp35
 70
     1
102
RTVSPropertyOp36
 70
     1
102
RTVSPropertyOp37
 70
     1
102
RTVSPropertyOp38
 70
     1
102
RTVSPropertyOp39
 70
     1
102
RTVSPropertyOp40
 70
     1
102
RTVSPropertyOp41
 70
     1
102
RTVSPropertyOp42
 70
     1
102
RTVSPropertyOp43
 70
     1
102
RTVSPropertyOp44
 70
     1
102
RTVSPropertyOp45
 70
     1
102
RTVSPropertyOp46
 70
     1
102
RTVSPropertyOp47
 70
     1
102
RTVSPropertyOp48
 70
     1
102
RTVSPropertyOp49
 70
     1
102
RTVSPropertyOp50
 70
     1
102
RTVSPropertyOp51
 70
     0
102
RTVSPropertyOp52
 70
     0
102
RTVSPropertyOp53
 70
     1
102
RTVSPropertyOp54
 70
     1
102
RTVSPropertyOp55
 70
     1
102
RTVSPropertyOp56
 70
     1
102
RTVSPropertyOp57
 70
     1
102
RTVSPropertyOp58
 70
     1
102
RTVSPropertyOp59
 70
     1
102
RTVSPropertyOp60
 70
     1
102
RTVSPropertyOp61
 70
     1
102
RTVSPropertyOp62
 70
     1
  0
XRECORD
  5
122A1
102
{ACAD_REACTORS
330
122A0
102
}
330
122A0
100
AcDbXrecord
280
     1
102
RTVSPost2010Prop28
280
     0
102
RTVSPost2010PropOp28
 70
     1
102
RTVSPost2010Prop29
280
     1
102
RTVSPost2010PropOp29
 70
     1
102
RTVSPost2010Prop30
280
     1
102
RTVSPost2010PropOp30
 70
     1
102
RTVSPost2010Prop31
280
     0
102
RTVSPost2010PropOp31
 70
     1
102
RTVSPost2010Prop32
280
     0
102
RTVSPost2010PropOp32
 70
     1
102
RTVSPost2010Prop33
280
     0
102
RTVSPost2010PropOp33
 70
     1
102
RTVSPost2010Prop34
280
     0
102
RTVSPost2010PropOp34
 70
     1
102
RTVSPost2010Prop35
280
     0
102
RTVSPost2010PropOp35
 70
     1
102
RTVSPost2010Prop36
280
     0
102
RTVSPost2010PropOp36
 70
     1
102
RTVSPost2010Prop37
 90
       50
102
RTVSPost2010PropOp37
 70
     1
102
RTVSPost2010Prop38
140
0.0
102
RTVSPost2010PropOp38
 70
     1
102
RTVSPost2010Prop39
140
1.0
102
RTVSPost2010PropOp39
 70
     1
102
RTVSPost2010Prop40
 90
        0
102
RTVSPost2010PropOp40
 70
     1
102
RTVSPost2010Prop41ColorIndex
 90
       18
102
RTVSPost2010Prop41ColorRGB
 90
        0
102
RTVSPost2010PropOp41
 70
     1
102
RTVSPost2010Prop42
 90
       50
102
RTVSPost2010PropOp42
 70
     1
102
RTVSPost2010Prop43
 90
        3
102
RTVSPost2010PropOp43
 70
     1
102
RTVSPost2010Prop44ColorIndex
 90
        5
102
RTVSPost2010Prop44ColorRGB
 90
      255
102
RTVSPost2010PropOp44
 70
     1
102
RTVSPost2010Prop45
280
     0
102
RTVSPost2010PropOp45
 70
     1
102
RTVSPost2010Prop46
 90
       50
102
RTVSPost2010PropOp46
 70
     1
102
RTVSPost2010Prop47
 90
       50
102
RTVSPost2010PropOp47
 70
     1
102
RTVSPost2010Prop48
 90
       50
102
RTVSPost2010PropOp48
 70
     1
102
RTVSPost2010Prop49
280
     0
102
RTVSPost2010PropOp49
 70
     1
102
RTVSPost2010Prop50
 90
       50
102
RTVSPost2010PropOp50
 70
     1
102
RTVSPost2010Prop51ColorIndex
 90
      256
102
RTVSPost2010Prop51ColorRGB
 90
-16777216
102
RTVSPost2010PropOp51
 70
     0
102
RTVSPost2010Prop52
140
1.0
102
RTVSPost2010PropOp52
 70
     0
102
RTVSPost2010Prop53
 90
        2
102
RTVSPost2010PropOp53
 70
     1
102
RTVSPost2010Prop54
  1
strokes_ogs.tif
102
RTVSPost2010PropOp54
 70
     1
102
RTVSPost2010Prop55
280
     0
102
RTVSPost2010PropOp55
 70
     1
102
RTVSPost2010Prop56
140
1.0
102
RTVSPost2010PropOp56
 70
     1
102
RTVSPost2010Prop57
140
1.0
102
RTVSPost2010PropOp57
 70
     1
102
RTVSPropertyOp0
 70
     1
102
RTVSPropertyOp1
 70
     1
102
RTVSPropertyOp2
 70
     1
102
RTVSPropertyOp3
 70
     1
102
RTVSPropertyOp4
 70
     1
102
RTVSPropertyOp5
 70
     1
102
RTVSPropertyOp6
 70
     1
102
RTVSPropertyOp7
 70
     1
102
RTVSPropertyOp8
 70
     1
102
RTVSPropertyOp9
 70
     1
102
RTVSPropertyOp10
 70
     1
102
RTVSPropertyOp11
 70
     1
102
RTVSPropertyOp12
 70
     1
102
RTVSPropertyOp13
 70
     1
102
RTVSPropertyOp14
 70
     1
102
RTVSPropertyOp15
 70
     1
102
RTVSPropertyOp16
 70
     1
102
RTVSPropertyOp17
 70
     1
102
RTVSPropertyOp18
 70
     1
102
RTVSPropertyOp19
 70
     1
102
RTVSPropertyOp20
 70
     1
102
RTVSPropertyOp21
 70
     1
102
RTVSPropertyOp22
 70
     1
102
RTVSPropertyOp23
 70
     1
102
RTVSPropertyOp24
 70
     1
102
RTVSPropertyOp25
 70
     1
102
RTVSPropertyOp26
 70
     1
102
RTVSPropertyOp27
 70
     1
102
RTVSPropertyOp28
 70
     1
102
RTVSPropertyOp29
 70
     1
102
RTVSPropertyOp30
 70
     1
102
RTVSPropertyOp31
 70
     1
102
RTVSPropertyOp32
 70
     1
102
RTVSPropertyOp33
 70
     1
102
RTVSPropertyOp34
 70
     1
102
RTVSPropertyOp35
 70
     1
102
RTVSPropertyOp36
 70
     1
102
RTVSPropertyOp37
 70
     1
102
RTVSPropertyOp38
 70
     1
102
RTVSPropertyOp39
 70
     1
102
RTVSPropertyOp40
 70
     1
102
RTVSPropertyOp41
 70
     1
102
RTVSPropertyOp42
 70
     1
102
RTVSPropertyOp43
 70
     1
102
RTVSPropertyOp44
 70
     1
102
RTVSPropertyOp45
 70
     1
102
RTVSPropertyOp46
 70
     1
102
RTVSPropertyOp47
 70
     1
102
RTVSPropertyOp48
 70
     1
102
RTVSPropertyOp49
 70
     1
102
RTVSPropertyOp50
 70
     1
102
RTVSPropertyOp51
 70
     0
102
RTVSPropertyOp52
 70
     0
102
RTVSPropertyOp53
 70
     1
102
RTVSPropertyOp54
 70
     1
102
RTVSPropertyOp55
 70
     1
102
RTVSPropertyOp56
 70
     1
102
RTVSPropertyOp57
 70
     1
102
RTVSPropertyOp58
 70
     1
102
RTVSPropertyOp59
 70
     1
102
RTVSPropertyOp60
 70
     1
102
RTVSPropertyOp61
 70
     1
102
RTVSPropertyOp62
 70
     1
  0
XRECORD
  5
12295
102
{ACAD_REACTORS
330
12294
102
}
330
12294
100
AcDbXrecord
280
     1
102
RTVSPost2010Prop28
280
     0
102
RTVSPost2010PropOp28
 70
     1
102
RTVSPost2010Prop29
280
     1
102
RTVSPost2010PropOp29
 70
     1
102
RTVSPost2010Prop30
280
     1
102
RTVSPost2010PropOp30
 70
     1
102
RTVSPost2010Prop31
280
     0
102
RTVSPost2010PropOp31
 70
     1
102
RTVSPost2010Prop32
280
     0
102
RTVSPost2010PropOp32
 70
     1
102
RTVSPost2010Prop33
280
     0
102
RTVSPost2010PropOp33
 70
     1
102
RTVSPost2010Prop34
280
     0
102
RTVSPost2010PropOp34
 70
     1
102
RTVSPost2010Prop35
280
     0
102
RTVSPost2010PropOp35
 70
     1
102
RTVSPost2010Prop36
280
     0
102
RTVSPost2010PropOp36
 70
     1
102
RTVSPost2010Prop37
 90
       50
102
RTVSPost2010PropOp37
 70
     1
102
RTVSPost2010Prop38
140
0.0
102
RTVSPost2010PropOp38
 70
     1
102
RTVSPost2010Prop39
140
1.0
102
RTVSPost2010PropOp39
 70
     1
102
RTVSPost2010Prop40
 90
        0
102
RTVSPost2010PropOp40
 70
     1
102
RTVSPost2010Prop41ColorIndex
 90
       18
102
RTVSPost2010Prop41ColorRGB
 90
        0
102
RTVSPost2010PropOp41
 70
     1
102
RTVSPost2010Prop42
 90
       50
102
RTVSPost2010PropOp42
 70
     1
102
RTVSPost2010Prop43
 90
        3
102
RTVSPost2010PropOp43
 70
     1
102
RTVSPost2010Prop44ColorIndex
 90
        5
102
RTVSPost2010Prop44ColorRGB
 90
      255
102
RTVSPost2010PropOp44
 70
     1
102
RTVSPost2010Prop45
280
     0
102
RTVSPost2010PropOp45
 70
     1
102
RTVSPost2010Prop46
 90
       50
102
RTVSPost2010PropOp46
 70
     1
102
RTVSPost2010Prop47
 90
       50
102
RTVSPost2010PropOp47
 70
     1
102
RTVSPost2010Prop48
 90
       50
102
RTVSPost2010PropOp48
 70
     1
102
RTVSPost2010Prop49
280
     0
102
RTVSPost2010PropOp49
 70
     1
102
RTVSPost2010Prop50
 90
       50
102
RTVSPost2010PropOp50
 70
     1
102
RTVSPost2010Prop51ColorIndex
 90
      256
102
RTVSPost2010Prop51ColorRGB
 90
-16777216
102
RTVSPost2010PropOp51
 70
     0
102
RTVSPost2010Prop52
140
1.0
102
RTVSPost2010PropOp52
 70
     0
102
RTVSPost2010Prop53
 90
        2
102
RTVSPost2010PropOp53
 70
     1
102
RTVSPost2010Prop54
  1
strokes_ogs.tif
102
RTVSPost2010PropOp54
 70
     1
102
RTVSPost2010Prop55
280
     0
102
RTVSPost2010PropOp55
 70
     1
102
RTVSPost2010Prop56
140
1.0
102
RTVSPost2010PropOp56
 70
     1
102
RTVSPost2010Prop57
140
1.0
102
RTVSPost2010PropOp57
 70
     1
102
RTVSPropertyOp0
 70
     1
102
RTVSPropertyOp1
 70
     1
102
RTVSPropertyOp2
 70
     1
102
RTVSPropertyOp3
 70
     1
102
RTVSPropertyOp4
 70
     1
102
RTVSPropertyOp5
 70
     1
102
RTVSPropertyOp6
 70
     1
102
RTVSPropertyOp7
 70
     1
102
RTVSPropertyOp8
 70
     1
102
RTVSPropertyOp9
 70
     1
102
RTVSPropertyOp10
 70
     1
102
RTVSPropertyOp11
 70
     1
102
RTVSPropertyOp12
 70
     1
102
RTVSPropertyOp13
 70
     1
102
RTVSPropertyOp14
 70
     1
102
RTVSPropertyOp15
 70
     1
102
RTVSPropertyOp16
 70
     1
102
RTVSPropertyOp17
 70
     1
102
RTVSPropertyOp18
 70
     1
102
RTVSPropertyOp19
 70
     1
102
RTVSPropertyOp20
 70
     1
102
RTVSPropertyOp21
 70
     1
102
RTVSPropertyOp22
 70
     1
102
RTVSPropertyOp23
 70
     1
102
RTVSPropertyOp24
 70
     1
102
RTVSPropertyOp25
 70
     1
102
RTVSPropertyOp26
 70
     1
102
RTVSPropertyOp27
 70
     1
102
RTVSPropertyOp28
 70
     1
102
RTVSPropertyOp29
 70
     1
102
RTVSPropertyOp30
 70
     1
102
RTVSPropertyOp31
 70
     1
102
RTVSPropertyOp32
 70
     1
102
RTVSPropertyOp33
 70
     1
102
RTVSPropertyOp34
 70
     1
102
RTVSPropertyOp35
 70
     1
102
RTVSPropertyOp36
 70
     1
102
RTVSPropertyOp37
 70
     1
102
RTVSPropertyOp38
 70
     1
102
RTVSPropertyOp39
 70
     1
102
RTVSPropertyOp40
 70
     1
102
RTVSPropertyOp41
 70
     1
102
RTVSPropertyOp42
 70
     1
102
RTVSPropertyOp43
 70
     1
102
RTVSPropertyOp44
 70
     1
102
RTVSPropertyOp45
 70
     1
102
RTVSPropertyOp46
 70
     1
102
RTVSPropertyOp47
 70
     1
102
RTVSPropertyOp48
 70
     1
102
RTVSPropertyOp49
 70
     1
102
RTVSPropertyOp50
 70
     1
102
RTVSPropertyOp51
 70
     0
102
RTVSPropertyOp52
 70
     0
102
RTVSPropertyOp53
 70
     1
102
RTVSPropertyOp54
 70
     1
102
RTVSPropertyOp55
 70
     1
102
RTVSPropertyOp56
 70
     1
102
RTVSPropertyOp57
 70
     1
102
RTVSPropertyOp58
 70
     1
102
RTVSPropertyOp59
 70
     1
102
RTVSPropertyOp60
 70
     1
102
RTVSPropertyOp61
 70
     1
102
RTVSPropertyOp62
 70
     1
  0
XRECORD
  5
122B5
102
{ACAD_REACTORS
330
122B4
102
}
330
122B4
100
AcDbXrecord
280
     1
102
RTVSPost2010Prop28
280
     0
102
RTVSPost2010PropOp28
 70
     1
102
RTVSPost2010Prop29
280
     1
102
RTVSPost2010PropOp29
 70
     1
102
RTVSPost2010Prop30
280
     1
102
RTVSPost2010PropOp30
 70
     1
102
RTVSPost2010Prop31
280
     0
102
RTVSPost2010PropOp31
 70
     1
102
RTVSPost2010Prop32
280
     0
102
RTVSPost2010PropOp32
 70
     1
102
RTVSPost2010Prop33
280
     0
102
RTVSPost2010PropOp33
 70
     1
102
RTVSPost2010Prop34
280
     0
102
RTVSPost2010PropOp34
 70
     1
102
RTVSPost2010Prop35
280
     0
102
RTVSPost2010PropOp35
 70
     1
102
RTVSPost2010Prop36
280
     0
102
RTVSPost2010PropOp36
 70
     1
102
RTVSPost2010Prop37
 90
       50
102
RTVSPost2010PropOp37
 70
     1
102
RTVSPost2010Prop38
140
0.0
102
RTVSPost2010PropOp38
 70
     1
102
RTVSPost2010Prop39
140
1.0
102
RTVSPost2010PropOp39
 70
     1
102
RTVSPost2010Prop40
 90
        0
102
RTVSPost2010PropOp40
 70
     1
102
RTVSPost2010Prop41ColorIndex
 90
       18
102
RTVSPost2010Prop41ColorRGB
 90
        0
102
RTVSPost2010PropOp41
 70
     1
102
RTVSPost2010Prop42
 90
       50
102
RTVSPost2010PropOp42
 70
     1
102
RTVSPost2010Prop43
 90
        3
102
RTVSPost2010PropOp43
 70
     1
102
RTVSPost2010Prop44ColorIndex
 90
        5
102
RTVSPost2010Prop44ColorRGB
 90
      255
102
RTVSPost2010PropOp44
 70
     1
102
RTVSPost2010Prop45
280
     0
102
RTVSPost2010PropOp45
 70
     1
102
RTVSPost2010Prop46
 90
       50
102
RTVSPost2010PropOp46
 70
     1
102
RTVSPost2010Prop47
 90
       50
102
RTVSPost2010PropOp47
 70
     1
102
RTVSPost2010Prop48
 90
       50
102
RTVSPost2010PropOp48
 70
     1
102
RTVSPost2010Prop49
280
     0
102
RTVSPost2010PropOp49
 70
     1
102
RTVSPost2010Prop50
 90
       50
102
RTVSPost2010PropOp50
 70
     1
102
RTVSPost2010Prop51ColorIndex
 90
      256
102
RTVSPost2010Prop51ColorRGB
 90
-16777216
102
RTVSPost2010PropOp51
 70
     0
102
RTVSPost2010Prop52
140
1.0
102
RTVSPost2010PropOp52
 70
     0
102
RTVSPost2010Prop53
 90
        2
102
RTVSPost2010PropOp53
 70
     1
102
RTVSPost2010Prop54
  1
strokes_ogs.tif
102
RTVSPost2010PropOp54
 70
     1
102
RTVSPost2010Prop55
280
     0
102
RTVSPost2010PropOp55
 70
     1
102
RTVSPost2010Prop56
140
1.0
102
RTVSPost2010PropOp56
 70
     1
102
RTVSPost2010Prop57
140
1.0
102
RTVSPost2010PropOp57
 70
     1
102
RTVSPropertyOp0
 70
     1
102
RTVSPropertyOp1
 70
     1
102
RTVSPropertyOp2
 70
     1
102
RTVSPropertyOp3
 70
     1
102
RTVSPropertyOp4
 70
     1
102
RTVSPropertyOp5
 70
     1
102
RTVSPropertyOp6
 70
     1
102
RTVSPropertyOp7
 70
     1
102
RTVSPropertyOp8
 70
     1
102
RTVSPropertyOp9
 70
     1
102
RTVSPropertyOp10
 70
     1
102
RTVSPropertyOp11
 70
     1
102
RTVSPropertyOp12
 70
     1
102
RTVSPropertyOp13
 70
     1
102
RTVSPropertyOp14
 70
     1
102
RTVSPropertyOp15
 70
     1
102
RTVSPropertyOp16
 70
     1
102
RTVSPropertyOp17
 70
     1
102
RTVSPropertyOp18
 70
     1
102
RTVSPropertyOp19
 70
     1
102
RTVSPropertyOp20
 70
     1
102
RTVSPropertyOp21
 70
     1
102
RTVSPropertyOp22
 70
     1
102
RTVSPropertyOp23
 70
     1
102
RTVSPropertyOp24
 70
     1
102
RTVSPropertyOp25
 70
     1
102
RTVSPropertyOp26
 70
     1
102
RTVSPropertyOp27
 70
     1
102
RTVSPropertyOp28
 70
     1
102
RTVSPropertyOp29
 70
     1
102
RTVSPropertyOp30
 70
     1
102
RTVSPropertyOp31
 70
     1
102
RTVSPropertyOp32
 70
     1
102
RTVSPropertyOp33
 70
     1
102
RTVSPropertyOp34
 70
     1
102
RTVSPropertyOp35
 70
     1
102
RTVSPropertyOp36
 70
     1
102
RTVSPropertyOp37
 70
     1
102
RTVSPropertyOp38
 70
     1
102
RTVSPropertyOp39
 70
     1
102
RTVSPropertyOp40
 70
     1
102
RTVSPropertyOp41
 70
     1
102
RTVSPropertyOp42
 70
     1
102
RTVSPropertyOp43
 70
     1
102
RTVSPropertyOp44
 70
     1
102
RTVSPropertyOp45
 70
     1
102
RTVSPropertyOp46
 70
     1
102
RTVSPropertyOp47
 70
     1
102
RTVSPropertyOp48
 70
     1
102
RTVSPropertyOp49
 70
     1
102
RTVSPropertyOp50
 70
     1
102
RTVSPropertyOp51
 70
     0
102
RTVSPropertyOp52
 70
     0
102
RTVSPropertyOp53
 70
     1
102
RTVSPropertyOp54
 70
     1
102
RTVSPropertyOp55
 70
     1
102
RTVSPropertyOp56
 70
     1
102
RTVSPropertyOp57
 70
     1
102
RTVSPropertyOp58
 70
     1
102
RTVSPropertyOp59
 70
     1
102
RTVSPropertyOp60
 70
     1
102
RTVSPropertyOp61
 70
     1
102
RTVSPropertyOp62
 70
     1
  0
ENDSEC
  0
EOF
