  0
SECTION
  2
HEADER
  9
$ACADVER
  1
AC1015
  9
$ACADMAINTVER
 70
    18
  9
$DWGCODEPAGE
  3
ANSI_1252
  9
$INSBASE
 10
0.0
 20
0.0
 30
0.0
  9
$EXTMIN
 10
-189.6459953366383
 20
-393.1252896831432
 30
-0.0015258207003583
  9
$EXTMAX
 10
210.8972175313361
 20
472.029511393315
 30
0.0000000349246037
  9
$LIMMIN
 10
0.0
 20
0.0
  9
$LIMMAX
 10
420.0
 20
297.0
  9
$ORTHOMODE
 70
     0
  9
$REGENMODE
 70
     1
  9
$FILLMODE
 70
     1
  9
$QTEXTMODE
 70
     0
  9
$MIRRTEXT
 70
     0
  9
$LTSCALE
 40
1.0
  9
$ATTMODE
 70
     1
  9
$TEXTSIZE
 40
2.5
  9
$TRACEWID
 40
1.0
  9
$TEXTSTYLE
  7
Standard
  9
$CLAYER
  8
0
  9
$CELTYPE
  6
ByLayer
  9
$CECOLOR
 62
   256
  9
$CELTSCALE
 40
1.0
  9
$DISPSILH
 70
     0
  9
$DIMSCALE
 40
1.0
  9
$DIMASZ
 40
2.5
  9
$DIMEXO
 40
0.625
  9
$DIMDLI
 40
3.75
  9
$DIMRND
 40
0.0
  9
$DIMDLE
 40
0.0
  9
$DIMEXE
 40
1.25
  9
$DIMTP
 40
0.0
  9
$DIMTM
 40
0.0
  9
$DIMTXT
 40
2.5
  9
$DIMCEN
 40
2.5
  9
$DIMTSZ
 40
0.0
  9
$DIMTOL
 70
     0
  9
$DIMLIM
 70
     0
  9
$DIMTIH
 70
     0
  9
$DIMTOH
 70
     0
  9
$DIMSE1
 70
     0
  9
$DIMSE2
 70
     0
  9
$DIMTAD
 70
     1
  9
$DIMZIN
 70
     8
  9
$DIMBLK
  1

  9
$DIMASO
 70
     1
  9
$DIMSHO
 70
     1
  9
$DIMPOST
  1

  9
$DIMAPOST
  1

  9
$DIMALT
 70
     0
  9
$DIMALTD
 70
     3
  9
$DIMALTF
 40
0.03937007874016
  9
$DIMLFAC
 40
1.0
  9
$DIMTOFL
 70
     1
  9
$DIMTVP
 40
0.0
  9
$DIMTIX
 70
     0
  9
$DIMSOXD
 70
     0
  9
$DIMSAH
 70
     0
  9
$DIMBLK1
  1

  9
$DIMBLK2
  1

  9
$DIMSTYLE
  2
ISO-25
  9
$DIMCLRD
 70
     0
  9
$DIMCLRE
 70
     0
  9
$DIMCLRT
 70
     0
  9
$DIMTFAC
 40
1.0
  9
$DIMGAP
 40
0.625
  9
$DIMJUST
 70
     0
  9
$DIMSD1
 70
     0
  9
$DIMSD2
 70
     0
  9
$DIMTOLJ
 70
     0
  9
$DIMTZIN
 70
     8
  9
$DIMALTZ
 70
     0
  9
$DIMALTTZ
 70
     0
  9
$DIMUPT
 70
     0
  9
$DIMDEC
 70
     2
  9
$DIMTDEC
 70
     2
  9
$DIMALTU
 70
     2
  9
$DIMALTTD
 70
     3
  9
$DIMTXSTY
  7
Standard
  9
$DIMAUNIT
 70
     0
  9
$DIMADEC
 70
     0
  9
$DIMALTRND
 40
0.0
  9
$DIMAZIN
 70
     0
  9
$DIMDSEP
 70
    44
  9
$DIMATFIT
 70
     3
  9
$DIMFRAC
 70
     0
  9
$DIMLDRBLK
  1

  9
$DIMLUNIT
 70
     2
  9
$DIMLWD
 70
    -2
  9
$DIMLWE
 70
    -2
  9
$DIMTMOVE
 70
     0
  9
$LUNITS
 70
     2
  9
$LUPREC
 70
     4
  9
$SKETCHINC
 40
1.0
  9
$FILLETRAD
 40
0.0
  9
$AUNITS
 70
     0
  9
$AUPREC
 70
     0
  9
$MENU
  1
.
  9
$ELEVATION
 40
0.0
  9
$PELEVATION
 40
0.0
  9
$THICKNESS
 40
0.0
  9
$LIMCHECK
 70
     0
  9
$CHAMFERA
 40
0.0
  9
$CHAMFERB
 40
0.0
  9
$CHAMFERC
 40
0.0
  9
$CHAMFERD
 40
0.0
  9
$SKPOLY
 70
     0
  9
$TDCREATE
 40
2460105.576319445
  9
$TDUCREATE
 40
2460105.284652778
  9
$TDUPDATE
 40
2460105.582638889
  9
$TDUUPDATE
 40
2460105.290972222
  9
$TDINDWG
 40
0.0012152778
  9
$TDUSRTIMER
 40
0.0012152778
  9
$USRTIMER
 70
     1
  9
$ANGBASE
 50
0.0
  9
$ANGDIR
 70
     0
  9
$PDMODE
 70
     0
  9
$PDSIZE
 40
0.0
  9
$PLINEWID
 40
0.0
  9
$SPLFRAME
 70
     0
  9
$SPLINETYPE
 70
     6
  9
$SPLINESEGS
 70
     8
  9
$HANDSEED
  5
12058
  9
$SURFTAB1
 70
     6
  9
$SURFTAB2
 70
     6
  9
$SURFTYPE
 70
     6
  9
$SURFU
 70
     6
  9
$SURFV
 70
     6
  9
$UCSBASE
  2

  9
$UCSNAME
  2

  9
$UCSORG
 10
0.0
 20
0.0
 30
0.0
  9
$UCSXDIR
 10
1.0
 20
0.0
 30
0.0
  9
$UCSYDIR
 10
0.0
 20
1.0
 30
0.0
  9
$UCSORTHOREF
  2

  9
$UCSORTHOVIEW
 70
     0
  9
$UCSORGTOP
 10
0.0
 20
0.0
 30
0.0
  9
$UCSORGBOTTOM
 10
0.0
 20
0.0
 30
0.0
  9
$UCSORGLEFT
 10
0.0
 20
0.0
 30
0.0
  9
$UCSORGRIGHT
 10
0.0
 20
0.0
 30
0.0
  9
$UCSORGFRONT
 10
0.0
 20
0.0
 30
0.0
  9
$UCSORGBACK
 10
0.0
 20
0.0
 30
0.0
  9
$PUCSBASE
  2

  9
$PUCSNAME
  2

  9
$PUCSORG
 10
0.0
 20
0.0
 30
0.0
  9
$PUCSXDIR
 10
1.0
 20
0.0
 30
0.0
  9
$PUCSYDIR
 10
0.0
 20
1.0
 30
0.0
  9
$PUCSORTHOREF
  2

  9
$PUCSORTHOVIEW
 70
     0
  9
$PUCSORGTOP
 10
0.0
 20
0.0
 30
0.0
  9
$PUCSORGBOTTOM
 10
0.0
 20
0.0
 30
0.0
  9
$PUCSORGLEFT
 10
0.0
 20
0.0
 30
0.0
  9
$PUCSORGRIGHT
 10
0.0
 20
0.0
 30
0.0
  9
$PUCSORGFRONT
 10
0.0
 20
0.0
 30
0.0
  9
$PUCSORGBACK
 10
0.0
 20
0.0
 30
0.0
  9
$USERI1
 70
     0
  9
$USERI2
 70
     0
  9
$USERI3
 70
     0
  9
$USERI4
 70
     0
  9
$USERI5
 70
     0
  9
$USERR1
 40
0.0
  9
$USERR2
 40
0.0
  9
$USERR3
 40
0.0
  9
$USERR4
 40
0.0
  9
$USERR5
 40
0.0
  9
$WORLDVIEW
 70
     1
  9
$SHADEDGE
 70
     3
  9
$SHADEDIF
 70
    70
  9
$TILEMODE
 70
     1
  9
$MAXACTVP
 70
    48
  9
$PINSBASE
 10
0.0
 20
0.0
 30
0.0
  9
$PLIMCHECK
 70
     0
  9
$PEXTMIN
 10
0.0
 20
0.0
 30
0.0
  9
$PEXTMAX
 10
0.0
 20
0.0
 30
0.0
  9
$PLIMMIN
 10
0.0
 20
0.0
  9
$PLIMMAX
 10
12.0
 20
9.0
  9
$UNITMODE
 70
     0
  9
$VISRETAIN
 70
     1
  9
$PLINEGEN
 70
     0
  9
$PSLTSCALE
 70
     1
  9
$TREEDEPTH
 70
  3020
  9
$CMLSTYLE
  2
Standard
  9
$CMLJUST
 70
     0
  9
$CMLSCALE
 40
20.0
  9
$PROXYGRAPHICS
 70
     1
  9
$MEASUREMENT
 70
     1
  9
$CELWEIGHT
370
    -1
  9
$ENDCAPS
280
     0
  9
$JOINSTYLE
280
     0
  9
$LWDISPLAY
290
     0
  9
$INSUNITS
 70
     4
  9
$HYPERLINKBASE
  1

  9
$STYLESHEET
  1

  9
$XEDIT
290
     1
  9
$CEPSNTYPE
380
     0
  9
$PSTYLEMODE
290
     1
  9
$FINGERPRINTGUID
  2
{61A4B8EA-1705-6D48-8B0C-22EBBF73F8CA}
  9
$VERSIONGUID
  2
{BB556E34-71DF-D64C-B406-D4DE3C9B7560}
  9
$EXTNAMES
290
     1
  9
$PSVPSCALE
 40
0.0
  9
$OLESTARTUP
290
     0
  0
ENDSEC
  0
SECTION
  2
CLASSES
  0
CLASS
  1
ACDBDICTIONARYWDFLT
  2
AcDbDictionaryWithDefault
  3
ObjectDBX Classes
 90
        0
280
     0
281
     0
  0
CLASS
  1
ACDBPLACEHOLDER
  2
AcDbPlaceHolder
  3
ObjectDBX Classes
 90
        0
280
     0
281
     0
  0
CLASS
  1
LAYOUT
  2
AcDbLayout
  3
ObjectDBX Classes
 90
        0
280
     0
281
     0
  0
CLASS
  1
DICTIONARYVAR
  2
AcDbDictionaryVar
  3
ObjectDBX Classes
 90
        0
280
     0
281
     0
  0
CLASS
  1
TABLESTYLE
  2
AcDbTableStyle
  3
ObjectDBX Classes
 90
     4095
280
     0
281
     0
  0
CLASS
  1
MATERIAL
  2
AcDbMaterial
  3
ObjectDBX Classes
 90
     1153
280
     0
281
     0
  0
CLASS
  1
VISUALSTYLE
  2
AcDbVisualStyle
  3
ObjectDBX Classes
 90
     4095
280
     0
281
     0
  0
CLASS
  1
SCALE
  2
AcDbScale
  3
ObjectDBX Classes
 90
     1153
280
     0
281
     0
  0
CLASS
  1
MLEADERSTYLE
  2
AcDbMLeaderStyle
  3
ACDB_MLEADERSTYLE_CLASS
 90
     4095
280
     0
281
     0
  0
CLASS
  1
CELLSTYLEMAP
  2
AcDbCellStyleMap
  3
ObjectDBX Classes
 90
     1152
280
     0
281
     0
  0
CLASS
  1
EXACXREFPANELOBJECT
  2
ExAcXREFPanelObject
  3
EXAC_ESW
 90
    33793
280
     0
281
     0
  0
CLASS
  1
NPOCOLLECTION
  2
AcDbImpNonPersistentObjectsCollection
  3
ObjectDBX Classes
 90
    33921
280
     0
281
     0
  0
CLASS
  1
LAYER_INDEX
  2
AcDbLayerIndex
  3
ObjectDBX Classes
 90
    32768
280
     0
281
     0
  0
CLASS
  1
SPATIAL_INDEX
  2
AcDbSpatialIndex
  3
ObjectDBX Classes
 90
    32768
280
     0
281
     0
  0
CLASS
  1
IDBUFFER
  2
AcDbIdBuffer
  3
ObjectDBX Classes
 90
    32768
280
     0
281
     0
  0
CLASS
  1
ACDBSECTIONVIEWSTYLE
  2
AcDbSectionViewStyle
  3
ObjectDBX Classes
 90
     1025
280
     0
281
     0
  0
CLASS
  1
ACDBDETAILVIEWSTYLE
  2
AcDbDetailViewStyle
  3
ObjectDBX Classes
 90
     1025
280
     0
281
     0
  0
CLASS
  1
XRECORD
  2
AcDbXrecord
  3
ObjectDBX Classes
 90
        0
280
     0
281
     0
  0
ENDSEC
  0
SECTION
  2
TABLES
  0
TABLE
  2
VPORT
  5
8
102
{ACAD_XDICTIONARY
360
11F66
102
}
330
0
100
AcDbSymbolTable
 70
     1
  0
VPORT
  5
EA
330
8
100
AcDbSymbolTableRecord
100
AcDbViewportTableRecord
  2
*Active
 70
     0
 10
0.0
 20
0.0
 11
1.0
 21
1.0
 12
10.62561109734889
 22
39.45211085508589
 13
0.0
 23
0.0
 14
10.0
 24
10.0
 15
10.0
 25
10.0
 16
0.0
 26
0.0
 36
1.0
 17
0.0
 27
0.0
 37
0.0
 40
920.0137277479132
 41
0.9846153846153846
 42
50.0
 43
0.0
 44
0.0
 50
0.0
 51
0.0
 71
     0
 72
  1000
 73
     1
 74
     3
 75
     0
 76
     1
 77
     0
 78
     0
281
     0
 65
     1
110
0.0
120
0.0
130
0.0
111
1.0
121
0.0
131
0.0
112
0.0
122
1.0
132
0.0
 79
     0
146
0.0
1001
ACAD_NAV_VCDISPLAY
1070
     3
  0
ENDTAB
  0
TABLE
  2
LTYPE
  5
5
330
0
100
AcDbSymbolTable
 70
     1
  0
LTYPE
  5
14
330
5
100
AcDbSymbolTableRecord
100
AcDbLinetypeTableRecord
  2
ByBlock
 70
     0
  3

 72
    65
 73
     0
 40
0.0
  0
LTYPE
  5
15
330
5
100
AcDbSymbolTableRecord
100
AcDbLinetypeTableRecord
  2
ByLayer
 70
     0
  3

 72
    65
 73
     0
 40
0.0
  0
LTYPE
  5
16
330
5
100
AcDbSymbolTableRecord
100
AcDbLinetypeTableRecord
  2
Continuous
 70
     0
  3
Solid line
 72
    65
 73
     0
 40
0.0
  0
ENDTAB
  0
TABLE
  2
LAYER
  5
2
102
{ACAD_XDICTIONARY
360
1FF
102
}
330
0
100
AcDbSymbolTable
 70
     1
  0
LAYER
  5
10
102
{ACAD_XDICTIONARY
360
13C
102
}
330
2
100
AcDbSymbolTableRecord
100
AcDbLayerTableRecord
  2
0
 70
     0
 62
     7
  6
Continuous
370
    -3
390
F
  0
ENDTAB
  0
TABLE
  2
STYLE
  5
3
330
0
100
AcDbSymbolTable
 70
     1
  0
STYLE
  5
11
330
3
100
AcDbSymbolTableRecord
100
AcDbTextStyleTableRecord
  2
Standard
 70
     0
 40
0.0
 41
1.0
 50
0.0
 71
     0
 42
2.5
  3
arial.ttf
  4

1001
ACAD
1000
Arial
1071
       34
  0
ENDTAB
  0
TABLE
  2
VIEW
  5
6
330
0
100
AcDbSymbolTable
 70
     0
  0
ENDTAB
  0
TABLE
  2
UCS
  5
7
330
0
100
AcDbSymbolTable
 70
     0
  0
ENDTAB
  0
TABLE
  2
APPID
  5
9
330
0
100
AcDbSymbolTable
 70
     8
  0
APPID
  5
12
330
9
100
AcDbSymbolTableRecord
100
AcDbRegAppTableRecord
  2
ACAD
 70
     0
  0
APPID
  5
9E
330
9
100
AcDbSymbolTableRecord
100
AcDbRegAppTableRecord
  2
ACAD_PSEXT
 70
     0
  0
APPID
  5
133
330
9
100
AcDbSymbolTableRecord
100
AcDbRegAppTableRecord
  2
AcadAnnoPO
 70
     0
  0
APPID
  5
134
330
9
100
AcDbSymbolTableRecord
100
AcDbRegAppTableRecord
  2
AcadAnnotative
 70
     0
  0
APPID
  5
135
330
9
100
AcDbSymbolTableRecord
100
AcDbRegAppTableRecord
  2
ACAD_DSTYLE_DIMJAG
 70
     0
  0
APPID
  5
136
330
9
100
AcDbSymbolTableRecord
100
AcDbRegAppTableRecord
  2
ACAD_DSTYLE_DIMTALN
 70
     0
  0
APPID
  5
165
330
9
100
AcDbSymbolTableRecord
100
AcDbRegAppTableRecord
  2
ACAD_MLEADERVER
 70
     0
  0
APPID
  5
217
330
9
100
AcDbSymbolTableRecord
100
AcDbRegAppTableRecord
  2
ACAD_NAV_VCDISPLAY
 70
     0
  0
ENDTAB
  0
TABLE
  2
DIMSTYLE
  5
A
330
0
100
AcDbSymbolTable
 70
     1
100
AcDbDimStyleTable
 71
     0
  0
DIMSTYLE
105
27
330
A
100
AcDbSymbolTableRecord
100
AcDbDimStyleTableRecord
  2
ISO-25
 70
     0
 41
2.5
 42
0.625
 43
3.75
 44
1.25
 73
     0
 74
     0
 77
     1
 78
     8
140
2.5
141
2.5
143
0.03937007874016
147
0.625
171
     3
172
     1
271
     2
272
     2
274
     3
278
    44
283
     0
284
     8
340
11
  0
ENDTAB
  0
TABLE
  2
BLOCK_RECORD
  5
1
330
0
100
AcDbSymbolTable
 70
     7
  0
BLOCK_RECORD
  5
1F
102
{ACAD_XDICTIONARY
360
1CE
102
}
330
1
100
AcDbSymbolTableRecord
100
AcDbBlockTableRecord
  2
*Model_Space
340
22
  0
BLOCK_RECORD
  5
D2
102
{ACAD_XDICTIONARY
360
11F19
102
}
330
1
100
AcDbSymbolTableRecord
100
AcDbBlockTableRecord
  2
*Paper_Space
340
D3
  0
BLOCK_RECORD
  5
D6
102
{ACAD_XDICTIONARY
360
11F1B
102
}
330
1
100
AcDbSymbolTableRecord
100
AcDbBlockTableRecord
  2
*Paper_Space0
340
D7
  0
BLOCK_RECORD
  5
11D77
330
1
100
AcDbSymbolTableRecord
100
AcDbBlockTableRecord
  2
HTT4-Front
340
0
102
{BLKREFS
331
11F0F
102
}
  0
BLOCK_RECORD
  5
11DBA
330
1
100
AcDbSymbolTableRecord
100
AcDbBlockTableRecord
  2
HTT4-Left
340
0
102
{BLKREFS
331
11F10
102
}
  0
BLOCK_RECORD
  5
11DE7
330
1
100
AcDbSymbolTableRecord
100
AcDbBlockTableRecord
  2
HTT4-Right
340
0
102
{BLKREFS
331
11F11
102
}
  0
BLOCK_RECORD
  5
11E14
330
1
100
AcDbSymbolTableRecord
100
AcDbBlockTableRecord
  2
HTT4-Top
340
0
102
{BLKREFS
331
11F12
102
}
  0
BLOCK_RECORD
  5
11E55
330
1
100
AcDbSymbolTableRecord
100
AcDbBlockTableRecord
  2
HTT4-Bottom
340
0
102
{BLKREFS
331
11F13
102
}
  0
BLOCK_RECORD
  5
11E87
330
1
100
AcDbSymbolTableRecord
100
AcDbBlockTableRecord
  2
HTT4-ISO
340
0
102
{BLKREFS
331
11F14
102
}
  0
ENDTAB
  0
ENDSEC
  0
SECTION
  2
BLOCKS
  0
BLOCK
  5
20
330
1F
100
AcDbEntity
  8
0
100
AcDbBlockBegin
  2
*Model_Space
 70
     0
 10
0.0
 20
0.0
 30
0.0
  3
*Model_Space
  1

  0
ENDBLK
  5
21
330
1F
100
AcDbEntity
  8
0
100
AcDbBlockEnd
  0
BLOCK
  5
D4
330
D2
100
AcDbEntity
 67
     1
  8
0
100
AcDbBlockBegin
  2
*Paper_Space
 70
     0
 10
0.0
 20
0.0
 30
0.0
  3
*Paper_Space
  1

  0
ENDBLK
  5
D5
330
D2
100
AcDbEntity
 67
     1
  8
0
100
AcDbBlockEnd
  0
BLOCK
  5
D8
330
D6
100
AcDbEntity
 67
     1
  8
0
100
AcDbBlockBegin
  2
*Paper_Space0
 70
     0
 10
0.0
 20
0.0
 30
0.0
  3
*Paper_Space0
  1

  0
ENDBLK
  5
D9
330
D6
100
AcDbEntity
 67
     1
  8
0
100
AcDbBlockEnd
  0
BLOCK
  5
11D78
330
11D77
100
AcDbEntity
  8
0
100
AcDbBlockBegin
  2
HTT4-Front
 70
     0
 10
0.0
 20
0.0
 30
0.0
  3
HTT4-Front
  1

  0
SPLINE
  5
11D7A
330
11D77
100
AcDbEntity
  8
0
100
AcDbSpline
210
0.0
220
0.0
230
1.0
 70
     8
 71
     3
 72
    16
 73
    12
 74
     0
 42
0.000000001
 43
0.0000000001
 40
0.0
 40
0.0
 40
0.0
 40
0.0
 40
0.0428423897057485
 40
0.0428423897057485
 40
0.0831477185022506
 40
0.0831477185022506
 40
0.1225143143222241
 40
0.1225143143222241
 40
0.1430971646864442
 40
0.1430971646864442
 40
0.1636604262610713
 40
0.1636604262610713
 40
0.1636604262610713
 40
0.1636604262610713
 10
-25.54927582106265
 20
13.03173459956754
 30
0.0
 10
-25.41394472374066
 20
13.03251005144149
 30
0.0
 10
-25.27814445798473
 20
13.00630914724669
 30
0.0
 10
-25.02959157608
 20
12.90209386129687
 30
0.0
 10
-24.91896669022449
 20
12.82844560813723
 30
0.0
 10
-24.73302382972606
 20
12.64294003871491
 30
0.0
 10
-24.65916922865702
 20
12.53415778026452
 30
0.0
 10
-24.58101476774559
 20
12.35107396896234
 30
0.0
 10
-24.56056660519003
 20
12.28561168106575
 30
0.0
 10
-24.5331496168497
 20
12.15156680142584
 30
0.0
 10
-24.52624000000002
 20
12.08333813678878
 30
0.0
 10
-24.52624000000002
 20
12.01493595678108
 30
0.0
  0
SPLINE
  5
11D7B
330
11D77
100
AcDbEntity
  8
0
100
AcDbSpline
210
0.0
220
0.0
230
1.0
 70
     8
 71
     3
 72
    16
 73
    12
 74
     0
 42
0.000000001
 43
0.0000000001
 40
0.0
 40
0.0
 40
0.0
 40
0.0
 40
0.0393055842810919
 40
0.0393055842810919
 40
0.0787112030853745
 40
0.0787112030853745
 40
0.1184454968045729
 40
0.1184454968045729
 40
0.1407236048268624
 40
0.1407236048268624
 40
0.1633022578477026
 40
0.1633022578477026
 40
0.1633022578477026
 40
0.1633022578477026
 10
24.52623999999995
 20
12.0149359567811
 30
0.0
 10
24.52623999999995
 20
12.14595415664442
 30
0.0
 10
24.55160640936138
 20
12.27572691924239
 30
0.0
 10
24.65007226062134
 20
12.51846952933357
 30
0.0
 10
24.72226290910465
 20
12.62891216957291
 30
0.0
 10
24.90430776270802
 20
12.81673389950125
 30
0.0
 10
25.01225405327521
 20
12.89161745937383
 30
0.0
 10
25.19654046786604
 20
12.97350716571051
 30
0.0
 10
25.26522636712523
 20
12.99556713684349
 30
0.0
 10
25.40610037214231
 20
13.02503405949176
 30
0.0
 10
25.47785818758215
 20
13.03214382508047
 30
0.0
 10
25.54927582106258
 20
13.03173459956754
 30
0.0
  0
SPLINE
  5
11D7C
330
11D77
100
AcDbEntity
  8
0
100
AcDbSpline
210
0.0
220
0.0
230
1.0
 70
     8
 71
     3
 72
    16
 73
    12
 74
     0
 42
0.000000001
 43
0.0000000001
 40
-0.1969447702847755
 40
-0.1969447702847755
 40
-0.1969447702847755
 40
-0.1969447702847755
 40
-0.1738095768924023
 40
-0.1738095768924023
 40
-0.1457909357767882
 40
-0.1457909357767882
 40
-0.1012418803318874
 40
-0.1012418803318874
 40
-0.0538491035528688
 40
-0.0538491035528688
 40
-0.0193284650333396
 40
-0.0193284650333396
 40
-0.0193284650333396
 40
-0.0193284650333396
 10
-24.52624
 20
12.03203857988898
 30
0.0
 10
-24.52624
 20
12.09885900096468
 30
0.0
 10
-24.53283360860763
 20
12.16547548675336
 30
0.0
 10
-24.56164079216684
 20
12.31003542342815
 30
0.0
 10
-24.58673939180125
 20
12.38679349140662
 30
0.0
 10
-24.67378051073518
 20
12.57503182029939
 30
0.0
 10
-24.74738592320246
 20
12.67751174205008
 30
0.0
 10
-24.92909805145812
 20
12.85439623288155
 30
0.0
 10
-25.03495237872803
 20
12.92290084855812
 30
0.0
 10
-25.22606577023116
 20
13.00536721744411
 30
0.0
 10
-25.31023301330356
 20
13.02954223676353
 30
0.0
 10
-25.39633641432829
 20
13.0429
 30
0.0
  0
LINE
  5
11D7D
330
11D77
100
AcDbEntity
  8
0
100
AcDbLine
 10
-25.39633641432848
 20
13.0429
 30
0.0
 11
-25.54505524145601
 21
13.0429
 31
0.0
  0
LINE
  5
11D7E
330
11D77
100
AcDbEntity
  8
0
100
AcDbLine
 10
-24.52624
 20
12.03203857891989
 30
0.0
 11
-24.52624
 21
11.69924000045464
 31
0.0
  0
LINE
  5
11D7F
330
11D77
100
AcDbEntity
  8
0
100
AcDbLine
 10
25.54505524145602
 20
13.0429
 30
0.0
 11
25.39633641432804
 21
13.0429
 31
0.0
  0
SPLINE
  5
11D80
330
11D77
100
AcDbEntity
  8
0
100
AcDbSpline
210
0.0
220
0.0
230
1.0
 70
     8
 71
     3
 72
    16
 73
    12
 74
     0
 42
0.000000001
 43
0.0000000001
 40
-0.1551265878925592
 40
-0.1551265878925592
 40
-0.1551265878925592
 40
-0.1551265878925592
 40
-0.1264870702588483
 40
-0.1264870702588483
 40
-0.0895242243710856
 40
-0.0895242243710856
 40
-0.0501065644589003
 40
-0.0501065644589003
 40
-0.0221900570286593
 40
-0.0221900570286593
 40
0.0
 40
0.0
 40
0.0
 40
0.0
 10
25.39633641432804
 20
13.04290000000001
 30
0.0
 10
25.3203948169002
 20
13.03111870139661
 30
0.0
 10
25.24295344041046
 20
13.01047555622672
 30
0.0
 10
25.06600835006161
 20
12.93853475254527
 30
0.0
 10
24.96936233666606
 20
12.88116416120289
 30
0.0
 10
24.78707478066108
 20
12.72399742231917
 30
0.0
 10
24.70641966831822
 20
12.62470570080898
 30
0.0
 10
24.60251247512641
 20
12.42929399761717
 30
0.0
 10
24.5702691544373
 20
12.34227467450955
 30
0.0
 10
24.53431795239384
 20
12.17967255577672
 30
0.0
 10
24.52623999999993
 20
12.1059926962714
 30
0.0
 10
24.52623999999993
 20
12.03203857988896
 30
0.0
  0
LINE
  5
11D81
330
11D77
100
AcDbEntity
  8
0
100
AcDbLine
 10
24.52623999999993
 20
12.03203857891987
 30
0.0
 11
24.52623999999993
 21
11.69924000045464
 31
0.0
  0
LINE
  5
11D82
330
11D77
100
AcDbEntity
  8
0
100
AcDbLine
 10
23.73248999999997
 20
13.0429
 30
0.0
 11
24.52623999999994
 21
13.0429
 31
0.0
  0
LINE
  5
11D83
330
11D77
100
AcDbEntity
  8
0
100
AcDbLine
 10
25.39633641432803
 20
13.0429
 30
0.0
 11
24.52624000000011
 21
13.0429
 31
0.0
  0
LINE
  5
11D84
330
11D77
100
AcDbEntity
  8
0
100
AcDbLine
 10
-24.52623999999999
 20
13.0429
 30
0.0
 11
-25.3963364143283
 21
13.0429
 31
0.0
  0
LINE
  5
11D85
330
11D77
100
AcDbEntity
  8
0
100
AcDbLine
 10
-23.73249000000003
 20
13.0429
 30
0.0
 11
-24.52624
 21
13.0429
 31
0.0
  0
LINE
  5
11D86
330
11D77
100
AcDbEntity
  8
0
100
AcDbLine
 10
-24.52623999999986
 20
0.0
 30
0.0
 11
-24.52623999999985
 21
11.69923999999998
 31
0.0
  0
SPLINE
  5
11D87
330
11D77
100
AcDbEntity
  8
0
100
AcDbSpline
210
0.0
220
0.0
230
1.0
 70
     8
 71
     3
 72
    16
 73
    12
 74
     0
 42
0.000000001
 43
0.0000000001
 40
0.0
 40
0.0
 40
0.0
 40
0.0
 40
0.1112442988749755
 40
0.1112442988749755
 40
0.2224299255202947
 40
0.2224299255202947
 40
0.3336155270249801
 40
0.3336155270249801
 40
0.3908647803495944
 40
0.3908647803495944
 40
0.4481146790159932
 40
0.4481146790159932
 40
0.4481146790159932
 40
0.4481146790159932
 10
-26.57858963636958
 20
13.09252992425445
 30
0.0
 10
-26.57844587770874
 20
13.08429399610435
 30
0.0
 10
-26.50584784889924
 20
13.07739967699072
 30
0.0
 10
-26.22398131287213
 20
13.06584637964906
 30
0.0
 10
-26.01748100359884
 20
13.06129395126648
 30
0.0
 10
-25.49650851063028
 20
13.05391858675371
 30
0.0
 10
-25.18701957328659
 20
13.05116383395264
 30
0.0
 10
-24.67032774283944
 20
13.04770833267394
 30
0.0
 10
-24.48764534511047
 20
13.04666783846468
 30
0.0
 10
-24.11366857114825
 20
13.04471573810049
 30
0.0
 10
-23.92332083167409
 20
13.04380880067297
 30
0.0
 10
-23.73249000000003
 20
13.04289999999998
 30
0.0
  0
SPLINE
  5
11D88
330
11D77
100
AcDbEntity
  8
0
100
AcDbSpline
210
0.0
220
0.0
230
1.0
 70
     8
 71
     3
 72
     8
 73
     4
 74
     0
 42
0.000000001
 43
0.0000000001
 40
0.185189358431806
 40
0.185189358431806
 40
0.185189358431806
 40
0.185189358431806
 40
0.2986648543618062
 40
0.2986648543618062
 40
0.2986648543618062
 40
0.2986648543618062
 10
-25.54927582106263
 20
13.03173459956754
 30
0.0
 10
-25.90622425108057
 20
13.029689272703
 30
0.0
 10
-26.25067023601055
 20
13.02785545955883
 30
0.0
 10
-26.57743440495346
 20
13.0263441921096
 30
0.0
  0
LINE
  5
11D89
330
11D77
100
AcDbEntity
  8
0
100
AcDbLine
 10
24.52623999999979
 20
0.0
 30
0.0
 11
24.52623999999979
 21
11.69923999999998
 31
0.0
  0
SPLINE
  5
11D8A
330
11D77
100
AcDbEntity
  8
0
100
AcDbSpline
210
0.0
220
0.0
230
1.0
 70
     8
 71
     3
 72
     8
 73
     4
 74
     0
 42
0.000000001
 43
0.0000000001
 40
0.5973814600491513
 40
0.5973814600491513
 40
0.5973814600491513
 40
0.5973814600491513
 40
0.7106467842490901
 40
0.7106467842490901
 40
0.7106467842490901
 40
0.7106467842490901
 10
26.57743427364802
 20
13.02634421868982
 30
0.0
 10
26.25113541854072
 20
13.02785338295116
 30
0.0
 10
25.9067377404476
 20
13.02968633039114
 30
0.0
 10
25.54927582106259
 20
13.03173459956754
 30
0.0
  0
SPLINE
  5
11D8B
330
11D77
100
AcDbEntity
  8
0
100
AcDbSpline
210
0.0
220
0.0
230
1.0
 70
     8
 71
     3
 72
    16
 73
    12
 74
     0
 42
0.000000001
 43
0.0000000001
 40
0.0
 40
0.0
 40
0.0
 40
0.0
 40
0.1112442988757188
 40
0.1112442988757188
 40
0.2224299255224647
 40
0.2224299255224647
 40
0.333615527028449
 40
0.333615527028449
 40
0.3908647803534917
 40
0.3908647803534917
 40
0.4481146790191246
 40
0.4481146790191246
 40
0.4481146790191246
 40
0.4481146790191246
 10
23.73248999999997
 20
13.04289999999996
 30
0.0
 10
24.10330012465038
 20
13.04466592266502
 30
0.0
 10
24.47055961111118
 20
13.04641690690356
 30
0.0
 10
25.15641077578625
 20
13.05091862632212
 30
0.0
 10
25.4684676825881
 20
13.05362855744128
 30
0.0
 10
25.99589975393457
 20
13.060891169594
 30
0.0
 10
26.20622993054267
 20
13.06537674500186
 30
0.0
 10
26.42605743653669
 20
13.0740140323387
 30
0.0
 10
26.48292632093394
 20
13.077250609592
 30
0.0
 10
26.55925224913474
 20
13.08439822479496
 30
0.0
 10
26.57851565353331
 20
13.08829145039933
 30
0.0
 10
26.57858963636952
 20
13.09252992425445
 30
0.0
  0
LINE
  5
11D8C
330
11D77
100
AcDbEntity
  8
0
100
AcDbLine
 10
-29.34333251941528
 20
8.481234572181595
 30
0.0
 11
-31.96273670744752
 21
158.5468
 31
0.0
  0
LINE
  5
11D8D
330
11D77
100
AcDbEntity
  8
0
100
AcDbLine
 10
-29.1175033646282
 20
158.5468
 30
0.0
 11
-26.49896579623438
 21
8.530883178014381
 31
0.0
  0
LINE
  5
11D8E
330
11D77
100
AcDbEntity
  8
0
100
AcDbLine
 10
-26.49766556959474
 20
8.481234572181399
 30
0.0
 11
-29.34333251941528
 21
8.481234572181595
 31
0.0
  0
ARC
  5
11D8F
330
11D77
100
AcDbEntity
  8
0
100
AcDbCircle
 10
-23.65459907305348
 20
8.580531783847185
 30
0.0
 40
2.844799999999998
100
AcDbArc
 50
181.0000000000002
 51
182.0003047799188
  0
CIRCLE
  5
11D90
330
11D77
100
AcDbEntity
  8
0
100
AcDbCircle
 10
-0.0000000000001065
 20
101.5999999999999
 30
0.0
 40
2.349499999999999
  0
CIRCLE
  5
11D91
330
11D77
100
AcDbEntity
  8
0
100
AcDbCircle
 10
-0.0000000000001114
 20
123.8249999999999
 30
0.0
 40
2.349499999999999
  0
CIRCLE
  5
11D92
330
11D77
100
AcDbEntity
  8
0
100
AcDbCircle
 10
7.945119999999985
 20
146.0499999999999
 30
0.0
 40
2.349499999999999
  0
CIRCLE
  5
11D93
330
11D77
100
AcDbEntity
  8
0
100
AcDbCircle
 10
-15.88008000000002
 20
146.0499999999999
 30
0.0
 40
2.349499999999999
  0
CIRCLE
  5
11D94
330
11D77
100
AcDbEntity
  8
0
100
AcDbCircle
 10
15.90039999999986
 20
168.2749999999999
 30
0.0
 40
2.349499999999999
  0
CIRCLE
  5
11D95
330
11D77
100
AcDbEntity
  8
0
100
AcDbCircle
 10
-7.924800000000134
 20
168.2749999999999
 30
0.0
 40
2.349499999999999
  0
CIRCLE
  5
11D96
330
11D77
100
AcDbEntity
  8
0
100
AcDbCircle
 10
7.95019999999985
 20
190.4999999999999
 30
0.0
 40
2.349499999999999
  0
CIRCLE
  5
11D97
330
11D77
100
AcDbEntity
  8
0
100
AcDbCircle
 10
-22.22500000000015
 20
190.4999999999999
 30
0.0
 40
2.349499999999999
  0
CIRCLE
  5
11D98
330
11D77
100
AcDbEntity
  8
0
100
AcDbCircle
 10
22.25039999999984
 20
212.7249999999999
 30
0.0
 40
2.349499999999999
  0
CIRCLE
  5
11D99
330
11D77
100
AcDbEntity
  8
0
100
AcDbCircle
 10
-7.924800000000158
 20
212.7249999999999
 30
0.0
 40
2.349499999999999
  0
CIRCLE
  5
11D9A
330
11D77
100
AcDbEntity
  8
0
100
AcDbCircle
 10
11.12519999999982
 20
234.9499999999999
 30
0.0
 40
2.349499999999999
  0
CIRCLE
  5
11D9B
330
11D77
100
AcDbEntity
  8
0
100
AcDbCircle
 10
-19.05000000000017
 20
234.9499999999999
 30
0.0
 40
2.349499999999999
  0
CIRCLE
  5
11D9C
330
11D77
100
AcDbEntity
  8
0
100
AcDbCircle
 10
19.06269999999981
 20
257.1749999999998
 30
0.0
 40
2.349499999999999
  0
CIRCLE
  5
11D9D
330
11D77
100
AcDbEntity
  8
0
100
AcDbCircle
 10
-11.11250000000018
 20
257.1749999999998
 30
0.0
 40
2.349499999999999
  0
CIRCLE
  5
11D9E
330
11D77
100
AcDbEntity
  8
0
100
AcDbCircle
 10
7.945119999999818
 20
279.3999999999999
 30
0.0
 40
2.349499999999999
  0
CIRCLE
  5
11D9F
330
11D77
100
AcDbEntity
  8
0
100
AcDbCircle
 10
-22.23008000000018
 20
279.3999999999999
 30
0.0
 40
2.349499999999999
  0
CIRCLE
  5
11DA0
330
11D77
100
AcDbEntity
  8
0
100
AcDbCircle
 10
22.23769999999979
 20
301.6249999999999
 30
0.0
 40
2.349499999999999
  0
CIRCLE
  5
11DA1
330
11D77
100
AcDbEntity
  8
0
100
AcDbCircle
 10
-7.937500000000206
 20
301.6249999999999
 30
0.0
 40
2.349499999999999
  0
LINE
  5
11DA2
330
11D77
100
AcDbEntity
  8
0
100
AcDbLine
 10
19.84374999999978
 20
314.3249999999999
 30
0.0
 11
31.74999999999979
 21
302.41875
 31
0.0
  0
LINE
  5
11DA3
330
11D77
100
AcDbEntity
  8
0
100
AcDbLine
 10
-31.7500000000002
 20
302.41875
 30
0.0
 11
-19.84375000000022
 21
314.3249999999999
 31
0.0
  0
LINE
  5
11DA4
330
11D77
100
AcDbEntity
  8
0
100
AcDbLine
 10
31.7499999999999
 20
167.081730576072
 30
0.0
 11
31.74999999999979
 21
302.41875
 31
0.0
  0
LINE
  5
11DA5
330
11D77
100
AcDbEntity
  8
0
100
AcDbLine
 10
19.84374999999978
 20
314.3249999999999
 30
0.0
 11
-19.84375000000022
 21
314.3249999999999
 31
0.0
  0
LINE
  5
11DA6
330
11D77
100
AcDbEntity
  8
0
100
AcDbLine
 10
-31.7500000000002
 20
302.41875
 30
0.0
 11
-31.75000000000004
 21
167.081730576072
 31
0.0
  0
ELLIPSE
  5
11DA7
330
11D77
100
AcDbEntity
  8
0
100
AcDbEllipse
 10
26.26979316565084
 20
158.4049010057468
 30
0.0
 11
0.1881416884284225
 21
7.937868084793251
 31
0.0
210
0.0
220
0.0
230
0.9999999999999998
 40
0.3582353278142741
 41
4.729817496795291
 42
4.738756112573823
  0
LINE
  5
11DA8
330
11D77
100
AcDbEntity
  8
0
100
AcDbLine
 10
31.77948455041033
 20
165.8988195785331
 30
0.0
 11
31.96273670744739
 21
158.5468
 31
0.0
  0
SPLINE
  5
11DA9
330
11D77
100
AcDbEntity
  8
0
100
AcDbSpline
210
0.0
220
0.0
230
1.0
 70
     8
 71
     3
 72
    16
 73
    12
 74
     0
 42
0.000000001
 43
0.0000000001
 40
-0.6535552917940049
 40
-0.6535552917940049
 40
-0.6535552917940049
 40
-0.6535552917940049
 40
-0.5440372284817718
 40
-0.5440372284817718
 40
-0.4153261261603481
 40
-0.4153261261603481
 40
-0.2323475610723142
 40
-0.2323475610723142
 40
-0.1902941471934274
 40
-0.1902941471934274
 40
-0.1778435367564611
 40
-0.1778435367564611
 40
-0.1778435367564611
 40
-0.1778435367564611
 10
29.11738969994596
 20
158.5468
 30
0.0
 10
29.13566944675971
 20
159.3950974279866
 30
0.0
 10
29.26349223035667
 20
160.2330504723839
 30
0.0
 10
29.77170091016276
 20
162.0194053754677
 30
0.0
 10
30.15270617776057
 20
162.8220474838727
 30
0.0
 10
31.00289940684008
 20
164.3654650793061
 30
0.0
 10
31.48523848934453
 20
165.0160849230875
 30
0.0
 10
31.73023767223251
 20
165.6040701143016
 30
0.0
 10
31.76346103611564
 20
165.7103049174964
 30
0.0
 10
31.77857421867519
 20
165.8394601108381
 30
0.0
 10
31.78022306640143
 20
165.8691905465285
 30
0.0
 10
31.77948455041033
 20
165.8988195785331
 30
0.0
  0
LINE
  5
11DAA
330
11D77
100
AcDbEntity
  8
0
100
AcDbLine
 10
31.96273670744739
 20
158.5468
 30
0.0
 11
29.11719191756383
 21
158.5289572096388
 31
0.0
  0
LINE
  5
11DAB
330
11D77
100
AcDbEntity
  8
0
100
AcDbLine
 10
31.77948455041033
 20
165.898819578533
 30
0.0
 11
31.7499999999999
 21
167.0817305760719
 31
0.0
  0
LINE
  5
11DAC
330
11D77
100
AcDbEntity
  8
0
100
AcDbLine
 10
-31.96273670744752
 20
158.5468
 30
0.0
 11
-29.1175033646282
 21
158.5468
 31
0.0
  0
ELLIPSE
  5
11DAD
330
11D77
100
AcDbEntity
  8
0
100
AcDbEllipse
 10
-26.26979316565095
 20
158.4049010057467
 30
0.0
 11
-0.1881416884284427
 21
7.937868084793305
 31
0.0
210
0.0
220
0.0
230
1.0
 40
0.3582353278142718
 41
1.544429194605752
 42
1.553367810384279
  0
SPLINE
  5
11DAE
330
11D77
100
AcDbEntity
  8
0
100
AcDbSpline
210
0.0
220
0.0
230
1.0
 70
     8
 71
     3
 72
    16
 73
    12
 74
     0
 42
0.000000001
 43
0.0000000001
 40
-1.162339603698974
 40
-1.162339603698974
 40
-1.162339603698974
 40
-1.162339603698974
 40
-1.147834256302633
 40
-1.147834256302633
 40
-1.036972199347248
 40
-1.036972199347248
 40
-0.6452557208226662
 40
-0.6452557208226662
 40
-0.2954461127886789
 40
-0.2954461127886789
 40
0.0
 40
0.0
 40
0.0
 40
0.0
 10
-31.77948455041049
 20
165.8988195785331
 30
0.0
 10
-31.77980233775019
 20
165.8860700492447
 30
0.0
 10
-31.77967857467595
 20
165.8732782375128
 30
0.0
 10
-31.77515371688931
 20
165.7625351481654
 30
0.0
 10
-31.74748433013539
 20
165.6549969808388
 30
0.0
 10
-31.54217478147735
 20
165.1257931586639
 30
0.0
 10
-31.15503911134919
 20
164.5807107662527
 30
0.0
 10
-30.33917014601506
 20
163.1903358882085
 30
0.0
 10
-29.89076265761803
 20
162.3362922827078
 30
0.0
 10
-29.28797330744038
 20
160.3869002155634
 30
0.0
 10
-29.13736326506717
 20
159.473701455068
 30
0.0
 10
-29.11738969994608
 20
158.5468
 30
0.0
  0
LINE
  5
11DAF
330
11D77
100
AcDbEntity
  8
0
100
AcDbLine
 10
-31.96273670744752
 20
158.5468
 30
0.0
 11
-31.77948455041049
 21
165.8988195785331
 31
0.0
  0
LINE
  5
11DB0
330
11D77
100
AcDbEntity
  8
0
100
AcDbLine
 10
-31.74999999999997
 20
167.0817305760746
 30
0.0
 11
-31.77948455041049
 21
165.8988195785331
 31
0.0
  0
LINE
  5
11DB1
330
11D77
100
AcDbEntity
  8
0
100
AcDbLine
 10
26.54878854626312
 20
11.38522661550332
 30
0.0
 11
29.11719191756383
 21
158.5289572096388
 31
0.0
  0
LINE
  5
11DB2
330
11D77
100
AcDbEntity
  8
0
100
AcDbLine
 10
26.54878854626312
 20
11.38522661550332
 30
0.0
 11
29.39315526944401
 21
11.33557800967054
 31
0.0
  0
LINE
  5
11DB3
330
11D77
100
AcDbEntity
  8
0
100
AcDbLine
 10
31.96273670744739
 20
158.5468
 30
0.0
 11
29.39315526944401
 21
11.33557800967054
 31
0.0
  0
ARC
  5
11DB4
330
11D77
100
AcDbEntity
  8
0
100
AcDbCircle
 10
-23.65459907305349
 20
8.580531783847161
 30
0.0
 40
2.84479999999999
100
AcDbArc
 50
182.0003047799184
 51
252.1577114718429
  0
ARC
  5
11DB5
330
11D77
100
AcDbEntity
  8
0
100
AcDbCircle
 10
-23.65459907305348
 20
8.580531783847165
 30
0.0
 40
5.689599999999995
100
AcDbArc
 50
180.9999999999995
 51
261.1876419826848
  0
LINE
  5
11DB6
330
11D77
100
AcDbEntity
  8
0
100
AcDbLine
 10
-24.52623999999985
 20
11.69923999999998
 30
0.0
 11
24.52623999999979
 21
11.69923999999998
 31
0.0
  0
LINE
  5
11DB7
330
11D77
100
AcDbEntity
  8
0
100
AcDbLine
 10
24.52623999999979
 20
0.0
 30
0.0
 11
-24.52623999999985
 21
0.0
 31
0.0
  0
ARC
  5
11DB8
330
11D77
100
AcDbEntity
  8
0
100
AcDbCircle
 10
23.70442182308221
 20
11.43487522133611
 30
0.0
 40
5.6896
100
AcDbArc
 50
278.3049778968887
 51
359.0000000000001
  0
ARC
  5
11DB9
330
11D77
100
AcDbEntity
  8
0
100
AcDbCircle
 10
23.70442182308221
 20
11.43487522133611
 30
0.0
 40
2.844800000000005
100
AcDbArc
 50
286.7911750115043
 51
359.0000000000001
  0
ENDBLK
  5
11D79
330
11D77
100
AcDbEntity
  8
0
100
AcDbBlockEnd
  0
BLOCK
  5
11DBB
330
11DBA
100
AcDbEntity
  8
0
100
AcDbBlockBegin
  2
HTT4-Left
 70
     0
 10
0.0
 20
0.0
 30
0.0
  3
HTT4-Left
  1

  0
SPLINE
  5
11DBD
330
11DBA
100
AcDbEntity
  8
0
100
AcDbSpline
210
0.0
220
0.0
230
1.0
 70
     8
 71
     3
 72
    16
 73
    12
 74
     0
 42
0.000000001
 43
0.0000000001
 40
0.0
 40
0.0
 40
0.0
 40
0.0
 40
0.0428423897057485
 40
0.0428423897057485
 40
0.0831477185022506
 40
0.0831477185022506
 40
0.1225143143222241
 40
0.1225143143222241
 40
0.1430971646864442
 40
0.1430971646864442
 40
0.1636604262610713
 40
0.1636604262610713
 40
0.1636604262610713
 40
0.1636604262610713
 10
0.2978345365279301
 20
13.03173459956754
 30
0.0
 10
0.2522383981459942
 20
13.03251005144149
 30
0.0
 10
0.2125129171888526
 20
13.00630914724669
 30
0.0
 10
0.1489811800833931
 20
12.90209386129687
 30
0.0
 10
0.125049110654375
 20
12.82844560813723
 30
0.0
 10
0.0891328072827043
 20
12.64294003871491
 30
0.0
 10
0.077200709299573
 20
12.53415778026452
 30
0.0
 10
0.0653828189127782
 20
12.35107396896234
 30
0.0
 10
0.0625095453372463
 20
12.28561168106575
 30
0.0
 10
0.0588185402237925
 20
12.15156680142584
 30
0.0
 10
0.0580069107039163
 20
12.08333813678878
 30
0.0
 10
0.0581789521198035
 20
12.01493595678108
 30
0.0
  0
SPLINE
  5
11DBE
330
11DBA
100
AcDbEntity
  8
0
100
AcDbSpline
210
0.0
220
0.0
230
1.0
 70
     8
 71
     3
 72
    16
 73
    12
 74
     0
 42
0.000000001
 43
0.0000000001
 40
-0.1969447702847755
 40
-0.1969447702847755
 40
-0.1969447702847755
 40
-0.1969447702847755
 40
-0.1738095768924023
 40
-0.1738095768924023
 40
-0.1457909357767882
 40
-0.1457909357767882
 40
-0.1012418803318874
 40
-0.1012418803318874
 40
-0.0538491035528688
 40
-0.0538491035528688
 40
-0.0314866973301767
 40
-0.0314866973301767
 40
-0.0314866973301767
 40
-0.0314866973301767
 10
2.938958711969374
 20
12.03203857988898
 30
0.0
 10
2.940199086728505
 20
12.09885900096468
 30
0.0
 10
2.943017922029733
 20
12.16547548675336
 30
0.0
 10
2.953325539544333
 20
12.31003542342815
 30
0.0
 10
2.961623993870358
 20
12.38679349140662
 30
0.0
 10
2.992049945702766
 20
12.57503182029939
 30
0.0
 10
3.019005570494593
 20
12.67751174205008
 30
0.0
 10
3.099182070701748
 20
12.85439623288155
 30
0.0
 10
3.152419927241547
 20
12.92290084855812
 30
0.0
 10
3.250372525452716
 20
12.99312691143394
 30
0.0
 10
3.28497716540634
 20
13.01120102376454
 30
0.0
 10
3.323023212874847
 20
13.02477102191222
 30
0.0
  0
LINE
  5
11DBF
330
11DBA
100
AcDbEntity
  8
0
100
AcDbLine
 10
0.0555891558296294
 20
13.03789389248392
 30
0.0
 11
0.0
 21
6.959599999999994
 31
0.0
  0
LINE
  5
11DC0
330
11DBA
100
AcDbEntity
  8
0
100
AcDbLine
 10
2.938958687450827
 20
12.03203857891989
 30
0.0
 11
2.844800000000002
 21
6.959599999999994
 31
0.0
  0
LINE
  5
11DC1
330
11DBA
100
AcDbEntity
  8
0
100
AcDbLine
 10
0.0
 20
13.0429
 30
0.0
 11
0.0
 21
6.959599999999994
 31
0.0
  0
ELLIPSE
  5
11DC2
330
11DBA
100
AcDbEntity
  8
0
100
AcDbEllipse
 10
5.6896
 20
58.51680704441303
 30
0.0
 11
0.0000000000000069
 21
-326.006618081351
 31
0.0
210
0.0
220
0.0
230
1.0
 40
0.0174524064372835
 41
4.852348506047265
 42
4.8555180493667
  0
ARC
  5
11DC3
330
11DBA
100
AcDbEntity
  8
0
100
AcDbCircle
 10
6.959600000000001
 20
6.959599999999992
 30
0.0
 40
6.959599999999998
100
AcDbArc
 50
180.0
 51
269.9999999999998
  0
LINE
  5
11DC4
330
11DBA
100
AcDbEntity
  8
0
100
AcDbLine
 10
57.53560269887842
 20
0.0
 30
0.0
 11
6.959599999999985
 21
0.0
 31
0.0
  0
ARC
  5
11DC5
330
11DBA
100
AcDbEntity
  8
0
100
AcDbCircle
 10
57.53560269887842
 20
5.849619999999973
 30
0.0
 40
5.849620000000008
100
AcDbArc
 50
269.9999999999998
 51
89.99999999999984
  0
LINE
  5
11DC6
330
11DBA
100
AcDbEntity
  8
0
100
AcDbLine
 10
56.42381720951547
 20
11.69923999999998
 30
0.0
 11
57.53560269887843
 21
11.69923999999998
 31
0.0
  0
LINE
  5
11DC7
330
11DBA
100
AcDbEntity
  8
0
100
AcDbLine
 10
57.53560269887842
 20
8.854439999999978
 30
0.0
 11
57.40666432742216
 21
8.854439999999978
 31
0.0
  0
ARC
  5
11DC8
330
11DBA
100
AcDbEntity
  8
0
100
AcDbCircle
 10
57.53560269887842
 20
5.849619999999973
 30
0.0
 40
3.004820000000005
100
AcDbArc
 50
270.0
 51
90.0
  0
LINE
  5
11DC9
330
11DBA
100
AcDbEntity
  8
0
100
AcDbLine
 10
6.959599999999978
 20
2.844799999999985
 30
0.0
 11
57.53560269887842
 21
2.844799999999967
 31
0.0
  0
ARC
  5
11DCA
330
11DBA
100
AcDbEntity
  8
0
100
AcDbCircle
 10
6.959600000000003
 20
6.959599999999996
 30
0.0
 40
4.114800000000001
100
AcDbArc
 50
180.0
 51
269.9999999999997
  0
SPLINE
  5
11DCB
330
11DBA
100
AcDbEntity
  8
0
100
AcDbSpline
210
0.0
220
0.0
230
1.0
 70
     8
 71
     3
 72
    14
 73
    10
 74
     0
 42
0.000000001
 43
0.0000000001
 40
0.185189358431806
 40
0.185189358431806
 40
0.185189358431806
 40
0.185189358431806
 40
0.3332420225619788
 40
0.3332420225619788
 40
0.555530583797621
 40
0.555530583797621
 40
0.7257097298732722
 40
0.7257097298732722
 40
0.8955659581915817
 40
0.8955659581915817
 40
0.8955659581915817
 40
0.8955659581915817
 10
0.2978345365279298
 20
13.03173459956754
 30
0.0
 10
0.4547443380820815
 20
13.02906604025585
 30
0.0
 10
0.6716681827942591
 20
13.02675753426324
 30
0.0
 10
1.352566321631438
 20
13.02250048995834
 30
0.0
 10
1.878068565907697
 20
13.02136417601792
 30
0.0
 10
2.95988905853894
 20
13.02306002113448
 30
0.0
 10
3.474044821638381
 20
13.02501584935884
 30
0.0
 10
4.557295562352364
 20
13.031788225693
 30
0.0
 10
5.120236959956303
 20
13.0365624756819
 30
0.0
 10
5.686377377724413
 20
13.04284553765461
 30
0.0
  0
LINE
  5
11DCC
330
11DBA
100
AcDbEntity
  8
0
100
AcDbLine
 10
0.0
 20
13.0429
 30
0.0
 11
0.0
 21
158.5468
 31
0.0
  0
SPLINE
  5
11DCD
330
11DBA
100
AcDbEntity
  8
0
100
AcDbSpline
210
0.0
220
0.0
230
1.0
 70
     8
 71
     3
 72
     8
 73
     4
 74
     0
 42
0.000000001
 43
0.0000000001
 40
0.0003222802090349
 40
0.0003222802090349
 40
0.0003222802090349
 40
0.0003222802090349
 40
0.0006445605179894
 40
0.0006445605179894
 40
0.0006445605179894
 40
0.0006445605179894
 10
5.689599926077345
 20
13.04288642861124
 30
0.0
 10
5.68852576060364
 20
13.04287108949871
 30
0.0
 10
5.687451578952623
 20
13.04285745920744
 30
0.0
 10
5.68637737772441
 20
13.04284553765463
 30
0.0
  0
SPLINE
  5
11DCE
330
11DBA
100
AcDbEntity
  8
0
100
AcDbSpline
210
0.0
220
0.0
230
1.0
 70
     8
 71
     3
 72
     8
 73
     4
 74
     0
 42
0.000000001
 43
0.0000000001
 40
0.0
 40
0.0
 40
0.0
 40
0.0
 40
0.0003222817360955
 40
0.0003222817360955
 40
0.0003222817360955
 40
0.0003222817360955
 10
5.692822335684033
 20
13.04293755593372
 30
0.0
 10
5.691748226847279
 20
13.04291881014974
 30
0.0
 10
5.69067408896605
 20
13.04290176768795
 30
0.0
 10
5.689599926077361
 20
13.04288642861211
 30
0.0
  0
ELLIPSE
  5
11DCF
330
11DBA
100
AcDbEntity
  8
0
100
AcDbEllipse
 10
6.949308989398902
 20
12.04886627169738
 30
0.0
 11
1.016
 21
0.0
 31
0.0
210
0.0
220
0.0
230
1.0
 40
0.9998476951563912
 41
0.0
 42
1.588249619314839
  0
LINE
  5
11DD0
330
11DBA
100
AcDbEntity
  8
0
100
AcDbLine
 10
6.931577344458622
 20
13.06455681182308
 30
0.0
 11
5.692822335684033
 21
13.04293755593372
 31
0.0
  0
LINE
  5
11DD1
330
11DBA
100
AcDbEntity
  8
0
100
AcDbLine
 10
7.965308989398901
 20
8.481234572181612
 30
0.0
 11
7.965308989398903
 21
12.04886627169738
 31
0.0
  0
LINE
  5
11DD2
330
11DBA
100
AcDbEntity
  8
0
100
AcDbLine
 10
57.53560269887841
 20
8.481234572181595
 30
0.0
 11
57.53560269887841
 21
8.590075221336093
 31
0.0
  0
LINE
  5
11DD3
330
11DBA
100
AcDbEntity
  8
0
100
AcDbLine
 10
57.53560269887841
 20
8.590075221336093
 30
0.0
 11
57.49799945143293
 21
8.590075221336093
 31
0.0
  0
LINE
  5
11DD4
330
11DBA
100
AcDbEntity
  8
0
100
AcDbLine
 10
57.53560269887829
 20
8.481234572181595
 30
0.0
 11
5.689600000000014
 21
158.5468
 31
0.0
  0
LINE
  5
11DD5
330
11DBA
100
AcDbEntity
  8
0
100
AcDbLine
 10
2.8448
 20
302.41875
 30
0.0
 11
2.8448
 21
314.3249999999999
 31
0.0
  0
LINE
  5
11DD6
330
11DBA
100
AcDbEntity
  8
0
100
AcDbLine
 10
0.0
 20
314.3249999999999
 30
0.0
 11
0.0
 21
302.41875
 31
0.0
  0
LINE
  5
11DD7
330
11DBA
100
AcDbEntity
  8
0
100
AcDbLine
 10
0.0
 20
302.41875
 30
0.0
 11
2.8448
 21
302.41875
 31
0.0
  0
LINE
  5
11DD8
330
11DBA
100
AcDbEntity
  8
0
100
AcDbLine
 10
2.8448
 20
314.3249999999999
 30
0.0
 11
0.0
 21
314.3249999999999
 31
0.0
  0
LINE
  5
11DD9
330
11DBA
100
AcDbEntity
  8
0
100
AcDbLine
 10
2.8448
 20
302.41875
 30
0.0
 11
2.8448
 21
167.081730576072
 31
0.0
  0
LINE
  5
11DDA
330
11DBA
100
AcDbEntity
  8
0
100
AcDbLine
 10
0.0
 20
302.41875
 30
0.0
 11
0.0
 21
167.081730576072
 31
0.0
  0
LINE
  5
11DDB
330
11DBA
100
AcDbEntity
  8
0
100
AcDbLine
 10
0.0
 20
167.081730576072
 30
0.0
 11
2.8448
 21
167.081730576072
 31
0.0
  0
LINE
  5
11DDC
330
11DBA
100
AcDbEntity
  8
0
100
AcDbLine
 10
5.713369649228596
 20
158.5289572096388
 30
0.0
 11
5.703433893748459
 21
158.5067585121443
 31
0.0
  0
LINE
  5
11DDD
330
11DBA
100
AcDbEntity
  8
0
100
AcDbLine
 10
5.689600000000005
 20
158.5468
 30
0.0
 11
5.713369649228596
 21
158.5289572096388
 31
0.0
  0
LINE
  5
11DDE
330
11DBA
100
AcDbEntity
  8
0
100
AcDbLine
 10
5.68960000000001
 20
158.5468
 30
0.0
 11
3.051963557481296
 21
165.8988195785331
 31
0.0
  0
SPLINE
  5
11DDF
330
11DBA
100
AcDbEntity
  8
0
100
AcDbSpline
210
0.0
220
0.0
230
1.0
 70
     8
 71
     3
 72
    10
 73
     6
 74
     0
 42
0.000000001
 43
0.0000000001
 40
-0.4780248249070606
 40
-0.4780248249070606
 40
-0.4780248249070606
 40
-0.4780248249070606
 40
-0.3962814415815694
 40
-0.3962814415815694
 40
-0.3577207361501106
 40
-0.3577207361501106
 40
-0.3577207361501106
 40
-0.3577207361501106
 10
2.844800000000001
 20
167.0817305760746
 30
0.0
 10
2.8448
 20
166.8082803242144
 30
0.0
 10
2.877627603625999
 20
166.5353445216067
 30
0.0
 10
2.971475473671537
 20
166.1439760582025
 30
0.0
 10
3.008413809091225
 20
166.0202061874005
 30
0.0
 10
3.051963557481291
 20
165.8988195785331
 30
0.0
  0
SPLINE
  5
11DE0
330
11DBA
100
AcDbEntity
  8
0
100
AcDbSpline
210
0.0
220
0.0
230
1.0
 70
     8
 71
     3
 72
    22
 73
    18
 74
     0
 42
0.000000001
 43
0.0000000001
 40
-1.151047167356664
 40
-1.151047167356664
 40
-1.151047167356664
 40
-1.151047167356664
 40
-1.132990630921316
 40
-1.132990630921316
 40
-1.109750141947807
 40
-1.109750141947807
 40
-1.017289431522064
 40
-1.017289431522064
 40
-0.8803209745714525
 40
-0.8803209745714525
 40
-0.8219804066584456
 40
-0.8219804066584456
 40
-0.5620159928507338
 40
-0.5620159928507338
 40
-0.2615037979130166
 40
-0.2615037979130166
 40
0.0
 40
0.0
 40
0.0
 40
0.0
 10
5.689600000000009
 20
158.5468
 30
0.0
 10
5.669645572584631
 20
158.5468
 30
0.0
 10
5.64991971287445
 20
158.5483568494564
 30
0.0
 10
5.604814168027225
 20
158.5552221049096
 30
0.0
 10
5.579959597576666
 20
158.5614042966303
 30
0.0
 10
5.458478936109446
 20
158.6005664788087
 30
0.0
 10
5.33855473414917
 20
158.6681609536251
 30
0.0
 10
4.887016778656294
 20
158.9938648661373
 30
0.0
 10
4.502505459088588
 20
159.3122566587355
 30
0.0
 10
4.012353508093281
 20
159.740476958478
 30
0.0
 10
3.866159395985829
 20
159.8714495094008
 30
0.0
 10
3.084210587795849
 20
160.5915591079774
 30
0.0
 10
2.471869528919888
 20
161.2279426224743
 30
0.0
 10
1.319738790029003
 20
162.7192041345035
 30
0.0
 10
0.8101561828613842
 20
163.5857308050985
 30
0.0
 10
0.1659320256982862
 20
165.3513764102157
 30
0.0
 10
0.0000000000000013
 20
166.2103219005048
 30
0.0
 10
0.0
 20
167.0817305760747
 30
0.0
  0
LINE
  5
11DE1
330
11DBA
100
AcDbEntity
  8
0
100
AcDbLine
 10
0.0
 20
158.5468
 30
0.0
 11
0.0
 21
167.081730576072
 31
0.0
  0
LINE
  5
11DE2
330
11DBA
100
AcDbEntity
  8
0
100
AcDbLine
 10
57.42501100240318
 20
11.69923999999998
 30
0.0
 11
5.713369649228594
 21
158.5289572096388
 31
0.0
  0
LINE
  5
11DE3
330
11DBA
100
AcDbEntity
  8
0
100
AcDbLine
 10
57.53560269887834
 20
8.59007522133611
 30
0.0
 11
57.53560269887834
 21
8.85443999999998
 31
0.0
  0
LINE
  5
11DE4
330
11DBA
100
AcDbEntity
  8
0
100
AcDbLine
 10
57.53560269887828
 20
8.481234572181628
 30
0.0
 11
57.53560269887828
 21
2.89093178384717
 31
0.0
  0
LINE
  5
11DE5
330
11DBA
100
AcDbEntity
  8
0
100
AcDbLine
 10
7.965308989398943
 20
2.890931783847205
 30
0.0
 11
7.965308989398902
 21
8.481234572181628
 31
0.0
  0
LINE
  5
11DE6
330
11DBA
100
AcDbEntity
  8
0
100
AcDbLine
 10
57.53560269887827
 20
2.890931783847161
 30
0.0
 11
7.965308989398902
 21
2.890931783847179
 31
0.0
  0
ENDBLK
  5
11DBC
330
11DBA
100
AcDbEntity
  8
0
100
AcDbBlockEnd
  0
BLOCK
  5
11DE8
330
11DE7
100
AcDbEntity
  8
0
100
AcDbBlockBegin
  2
HTT4-Right
 70
     0
 10
0.0
 20
0.0
 30
0.0
  3
HTT4-Right
  1

  0
SPLINE
  5
11DEA
330
11DE7
100
AcDbEntity
  8
0
100
AcDbSpline
210
0.0
220
0.0
230
1.0
 70
     8
 71
     3
 72
    16
 73
    12
 74
     0
 42
0.000000001
 43
0.0000000001
 40
0.0
 40
0.0
 40
0.0
 40
0.0
 40
0.0393055842810919
 40
0.0393055842810919
 40
0.0787112030853745
 40
0.0787112030853745
 40
0.1184454968045729
 40
0.1184454968045729
 40
0.1407236048268624
 40
0.1407236048268624
 40
0.1633022578477026
 40
0.1633022578477026
 40
0.1633022578477026
 40
0.1633022578477026
 10
-0.0581789521198053
 20
12.0149359567811
 30
0.0
 10
-0.0578494223210691
 20
12.14595415664442
 30
0.0
 10
-0.061015967780409
 20
12.27572691924239
 30
0.0
 10
-0.0757556043037763
 20
12.51846952933357
 30
0.0
 10
-0.0872733539391152
 20
12.62891216957291
 30
0.0
 10
-0.1220239997496085
 20
12.81673389950125
 30
0.0
 10
-0.1450446200895605
 20
12.89161745937383
 30
0.0
 10
-0.1914364833697814
 20
12.97350716571051
 30
0.0
 10
-0.2100263685957723
 20
12.99556713684349
 30
0.0
 10
-0.2512357077682929
 20
13.02503405949176
 30
0.0
 10
-0.2737723042433684
 20
13.03214382508047
 30
0.0
 10
-0.2978345365279302
 20
13.03173459956754
 30
0.0
  0
SPLINE
  5
11DEB
330
11DE7
100
AcDbEntity
  8
0
100
AcDbSpline
210
0.0
220
0.0
230
1.0
 70
     8
 71
     3
 72
    16
 73
    12
 74
     0
 42
0.000000001
 43
0.0000000001
 40
-0.1438638996929797
 40
-0.1438638996929797
 40
-0.1438638996929797
 40
-0.1438638996929797
 40
-0.1264870702588483
 40
-0.1264870702588483
 40
-0.0895242243710856
 40
-0.0895242243710856
 40
-0.0501065644589003
 40
-0.0501065644589003
 40
-0.0221900570286593
 40
-0.0221900570286593
 40
0.0
 40
0.0
 40
0.0
 40
0.0
 10
-3.323027385717871
 20
13.02477363481023
 30
0.0
 10
-3.290628081469754
 20
13.01321799699933
 30
0.0
 10
-3.25996879179271
 20
12.99812467742909
 30
0.0
 10
-3.170099945586595
 20
12.93853475254527
 30
0.0
 10
-3.119409442554681
 20
12.88116416120289
 30
0.0
 10
-3.034935601968282
 20
12.72399742231917
 30
0.0
 10
-3.004079181005814
 20
12.62470570080898
 30
0.0
 10
-2.966876182254936
 20
12.42929399761717
 30
0.0
 10
-2.956276451492328
 20
12.34227467450955
 30
0.0
 10
-2.943631836754958
 20
12.17967255577672
 30
0.0
 10
-2.940331508156796
 20
12.1059926962714
 30
0.0
 10
-2.938958711969374
 20
12.03203857988896
 30
0.0
  0
LINE
  5
11DEC
330
11DE7
100
AcDbEntity
  8
0
100
AcDbLine
 10
-2.938958687450848
 20
12.03203857891987
 30
0.0
 11
-2.844800000000002
 21
6.959599999999994
 31
0.0
  0
LINE
  5
11DED
330
11DE7
100
AcDbEntity
  8
0
100
AcDbLine
 10
-0.0555891558296295
 20
13.03789389248393
 30
0.0
 11
0.0
 21
6.959599999999994
 31
0.0
  0
LINE
  5
11DEE
330
11DE7
100
AcDbEntity
  8
0
100
AcDbLine
 10
0.0
 20
6.959599999999994
 30
0.0
 11
0.0
 21
13.0429
 31
0.0
  0
ELLIPSE
  5
11DEF
330
11DE7
100
AcDbEntity
  8
0
100
AcDbEllipse
 10
-5.6896
 20
58.51680704441267
 30
0.0
 11
0.0000000000000025
 21
-326.0066180813488
 31
0.0
210
0.0
220
0.0
230
1.0
 40
0.0174524064372837
 41
1.427667257812886
 42
1.43083680113232
  0
ARC
  5
11DF0
330
11DE7
100
AcDbEntity
  8
0
100
AcDbCircle
 10
-6.959600000000003
 20
6.959599999999996
 30
0.0
 40
4.114800000000001
100
AcDbArc
 50
270.0000000000003
 51
0.0
  0
LINE
  5
11DF1
330
11DE7
100
AcDbEntity
  8
0
100
AcDbLine
 10
-6.959599999999978
 20
2.844799999999985
 30
0.0
 11
-57.53560269887842
 21
2.844799999999967
 31
0.0
  0
ARC
  5
11DF2
330
11DE7
100
AcDbEntity
  8
0
100
AcDbCircle
 10
-57.53560269887842
 20
5.849619999999973
 30
0.0
 40
3.004820000000005
100
AcDbArc
 50
90.0
 51
270.0
  0
LINE
  5
11DF3
330
11DE7
100
AcDbEntity
  8
0
100
AcDbLine
 10
-57.42501100240318
 20
11.69923999999998
 30
0.0
 11
-57.53560269887843
 21
11.69923999999998
 31
0.0
  0
ARC
  5
11DF4
330
11DE7
100
AcDbEntity
  8
0
100
AcDbCircle
 10
-57.53560269887842
 20
5.849619999999973
 30
0.0
 40
5.849620000000008
100
AcDbArc
 50
90.00000000000019
 51
270.0000000000002
  0
LINE
  5
11DF5
330
11DE7
100
AcDbEntity
  8
0
100
AcDbLine
 10
-57.53560269887842
 20
0.0
 30
0.0
 11
-6.959599999999976
 21
0.0
 31
0.0
  0
ARC
  5
11DF6
330
11DE7
100
AcDbEntity
  8
0
100
AcDbCircle
 10
-6.959600000000001
 20
6.959599999999992
 30
0.0
 40
6.959599999999998
100
AcDbArc
 50
270.0000000000002
 51
0.0
  0
LINE
  5
11DF7
330
11DE7
100
AcDbEntity
  8
0
100
AcDbLine
 10
0.0
 20
158.5468
 30
0.0
 11
0.0
 21
13.0429
 31
0.0
  0
SPLINE
  5
11DF8
330
11DE7
100
AcDbEntity
  8
0
100
AcDbSpline
210
0.0
220
0.0
230
1.0
 70
     8
 71
     3
 72
    14
 73
    10
 74
     0
 42
0.000000001
 43
0.0000000001
 40
0.0
 40
0.0
 40
0.0
 40
0.0
 40
0.1109419577493359
 40
0.1109419577493359
 40
0.3332420225662498
 40
0.3332420225662498
 40
0.5555305838055239
 40
0.5555305838055239
 40
0.7106467842490901
 40
0.7106467842490901
 40
0.7106467842490901
 40
0.7106467842490901
 10
-5.6896
 20
13.04288131842167
 30
0.0
 10
-5.319816293512607
 20
13.03877378592235
 30
0.0
 10
-4.950911733108986
 20
13.03530475697386
 30
0.0
 10
-3.861186932425145
 20
13.02671901105487
 30
0.0
 10
-3.169222768153998
 20
13.0235234833472
 30
0.0
 10
-1.93318631588103
 20
13.02132790727997
 30
0.0
 10
-1.400925027409626
 20
13.02234625963404
 30
0.0
 10
-0.693687967195658
 20
13.02652825319002
 30
0.0
 10
-0.4627724242757301
 20
13.02892950688473
 30
0.0
 10
-0.297834536527933
 20
13.03173459956754
 30
0.0
  0
ELLIPSE
  5
11DF9
330
11DE7
100
AcDbEntity
  8
0
100
AcDbEllipse
 10
-6.949308989398904
 20
12.04886627169736
 30
0.0
 11
-1.015999999999999
 21
-0.0000000000000442
 31
0.0
210
0.0
220
0.0
230
1.0
 40
0.9998476951563912
 41
4.694935687864702
 42
6.283185307179542
  0
LINE
  5
11DFA
330
11DE7
100
AcDbEntity
  8
0
100
AcDbLine
 10
-7.9653089893989
 20
12.04886627169736
 30
0.0
 11
-7.965308989398899
 21
11.33557800967057
 31
0.0
  0
LINE
  5
11DFB
330
11DE7
100
AcDbEntity
  8
0
100
AcDbLine
 10
-5.689600000000001
 20
13.0428813184217
 30
0.0
 11
-6.931577344458624
 21
13.06455681182308
 31
0.0
  0
LINE
  5
11DFC
330
11DE7
100
AcDbEntity
  8
0
100
AcDbLine
 10
-57.53560269887829
 20
2.890931783847126
 30
0.0
 11
-7.965308989398884
 21
2.890931783847143
 31
0.0
  0
LINE
  5
11DFD
330
11DE7
100
AcDbEntity
  8
0
100
AcDbLine
 10
-7.965308989398891
 20
2.890931783847143
 30
0.0
 11
-7.965308989398892
 21
5.735731783847146
 31
0.0
  0
LINE
  5
11DFE
330
11DE7
100
AcDbEntity
  8
0
100
AcDbLine
 10
-7.965308989398892
 20
5.735731783847146
 30
0.0
 11
-57.53560269887829
 21
5.735731783847128
 31
0.0
  0
LINE
  5
11DFF
330
11DE7
100
AcDbEntity
  8
0
100
AcDbLine
 10
-57.53560269887829
 20
2.890931783847126
 30
0.0
 11
-57.53560269887829
 21
5.735731783847128
 31
0.0
  0
LINE
  5
11E00
330
11DE7
100
AcDbEntity
  8
0
100
AcDbLine
 10
0.0
 20
302.41875
 30
0.0
 11
0.0
 21
314.3249999999999
 31
0.0
  0
LINE
  5
11E01
330
11DE7
100
AcDbEntity
  8
0
100
AcDbLine
 10
0.0
 20
314.3249999999999
 30
0.0
 11
-2.8448
 21
314.3249999999999
 31
0.0
  0
LINE
  5
11E02
330
11DE7
100
AcDbEntity
  8
0
100
AcDbLine
 10
-2.8448
 20
314.3249999999999
 30
0.0
 11
-2.8448
 21
302.41875
 31
0.0
  0
LINE
  5
11E03
330
11DE7
100
AcDbEntity
  8
0
100
AcDbLine
 10
-2.8448
 20
302.41875
 30
0.0
 11
0.0
 21
302.41875
 31
0.0
  0
LINE
  5
11E04
330
11DE7
100
AcDbEntity
  8
0
100
AcDbLine
 10
-2.8448
 20
167.081730576072
 30
0.0
 11
-2.8448
 21
302.41875
 31
0.0
  0
LINE
  5
11E05
330
11DE7
100
AcDbEntity
  8
0
100
AcDbLine
 10
0.0
 20
167.081730576072
 30
0.0
 11
0.0
 21
302.41875
 31
0.0
  0
LINE
  5
11E06
330
11DE7
100
AcDbEntity
  8
0
100
AcDbLine
 10
-2.8448
 20
167.081730576072
 30
0.0
 11
0.0
 21
167.081730576072
 31
0.0
  0
LINE
  5
11E07
330
11DE7
100
AcDbEntity
  8
0
100
AcDbLine
 10
-3.051963557481285
 20
165.8988195785331
 30
0.0
 11
-5.689600000000005
 21
158.5468
 31
0.0
  0
LINE
  5
11E08
330
11DE7
100
AcDbEntity
  8
0
100
AcDbLine
 10
-5.689600000000005
 20
158.5468
 30
0.0
 11
-5.713369649228596
 21
158.5289572096388
 31
0.0
  0
SPLINE
  5
11E09
330
11DE7
100
AcDbEntity
  8
0
100
AcDbSpline
210
0.0
220
0.0
230
1.0
 70
     8
 71
     3
 72
     8
 73
     4
 74
     0
 42
0.000000001
 43
0.0000000001
 40
-0.1208672268700966
 40
-0.1208672268700966
 40
-0.1208672268700966
 40
-0.1208672268700966
 40
0.0
 40
0.0
 40
0.0
 40
0.0
 10
-3.051963557481295
 20
165.898819578533
 30
0.0
 10
-2.916050954200967
 20
166.2776557608737
 30
0.0
 10
-2.8448
 20
166.6789649148187
 30
0.0
 10
-2.8448
 20
167.0817305760719
 30
0.0
  0
SPLINE
  5
11E0A
330
11DE7
100
AcDbEntity
  8
0
100
AcDbSpline
210
0.0
220
0.0
230
1.0
 70
     8
 71
     3
 72
    20
 73
    16
 74
     0
 42
0.000000001
 43
0.0000000001
 40
-0.1598489026684464
 40
-0.1598489026684464
 40
-0.1598489026684464
 40
-0.1598489026684464
 40
-0.1367479565069849
 40
-0.1367479565069849
 40
-0.1153474573593735
 40
-0.1153474573593735
 40
-0.0844356954966832
 40
-0.0844356954966832
 40
-0.049836685880347
 40
-0.049836685880347
 40
-0.0233359865518351
 40
-0.0233359865518351
 40
-0.0083287469220624
 40
-0.0083287469220624
 40
0.0
 40
0.0
 40
0.0
 40
0.0
 10
0.0
 20
167.0817305760719
 30
0.0
 10
0.0
 20
166.3504782718865
 30
0.0
 10
-0.1170646193107676
 20
165.6264213333029
 30
0.0
 10
-0.5320908661826608
 20
164.2771515188767
 30
0.0
 10
-0.8128805521391701
 20
163.6583941367036
 30
0.0
 10
-1.65268507043916
 20
162.2237182651033
 30
0.0
 10
-2.269588512060058
 20
161.4589188723552
 30
0.0
 10
-3.721628510922871
 20
159.9584509048421
 30
0.0
 10
-4.513114053326409
 20
159.2991815735828
 30
0.0
 10
-5.183553588469389
 20
158.7704372446418
 30
0.0
 10
-5.339815195820333
 20
158.6691324986967
 30
0.0
 10
-5.50613052989592
 20
158.5849536766759
 30
0.0
 10
-5.558546960981879
 20
158.5655914686144
 30
0.0
 10
-5.634640376037901
 20
158.5498163355135
 30
0.0
 10
-5.661837510259797
 20
158.5468
 30
0.0
 10
-5.689600000000005
 20
158.5468
 30
0.0
  0
LINE
  5
11E0B
330
11DE7
100
AcDbEntity
  8
0
100
AcDbLine
 10
0.0
 20
167.081730576072
 30
0.0
 11
0.0
 21
158.5467999999999
 31
0.0
  0
LINE
  5
11E0C
330
11DE7
100
AcDbEntity
  8
0
100
AcDbLine
 10
-57.53560269887836
 20
11.38522661550332
 30
0.0
 11
-5.713369649228594
 21
158.5289572096388
 31
0.0
  0
LINE
  5
11E0D
330
11DE7
100
AcDbEntity
  8
0
100
AcDbLine
 10
-57.53560269887836
 20
11.38522661550332
 30
0.0
 11
-57.53560269887836
 21
11.33557800967054
 31
0.0
  0
LINE
  5
11E0E
330
11DE7
100
AcDbEntity
  8
0
100
AcDbLine
 10
-5.689600000000005
 20
158.5468
 30
0.0
 11
-57.53560269887836
 21
11.33557800967054
 31
0.0
  0
LINE
  5
11E0F
330
11DE7
100
AcDbEntity
  8
0
100
AcDbLine
 10
-57.53560269887829
 20
5.74527522133609
 30
0.0
 11
-57.53560269887829
 21
5.735731783847168
 31
0.0
  0
LINE
  5
11E10
330
11DE7
100
AcDbEntity
  8
0
100
AcDbLine
 10
-7.965308989398922
 20
5.735731783847204
 30
0.0
 11
-7.965308989398922
 21
5.745275221336108
 31
0.0
  0
LINE
  5
11E11
330
11DE7
100
AcDbEntity
  8
0
100
AcDbLine
 10
-7.965308989398893
 20
11.33557800967065
 30
0.0
 11
-7.96530898939889
 21
5.745275221336144
 31
0.0
  0
LINE
  5
11E12
330
11DE7
100
AcDbEntity
  8
0
100
AcDbLine
 10
-57.53560269887831
 20
5.745275221336107
 30
0.0
 11
-57.53560269887836
 21
11.33557800967056
 31
0.0
  0
LINE
  5
11E13
330
11DE7
100
AcDbEntity
  8
0
100
AcDbLine
 10
-7.965308989398891
 20
5.745275221336143
 30
0.0
 11
-57.53560269887836
 21
5.745275221336108
 31
0.0
  0
ENDBLK
  5
11DE9
330
11DE7
100
AcDbEntity
  8
0
100
AcDbBlockEnd
  0
BLOCK
  5
11E15
330
11E14
100
AcDbEntity
  8
0
100
AcDbBlockBegin
  2
HTT4-Top
 70
     0
 10
0.0
 20
0.0
 30
0.0
  3
HTT4-Top
  1

  0
SPLINE
  5
11E17
330
11E14
100
AcDbEntity
  8
0
100
AcDbSpline
210
0.0
220
0.0
230
1.0
 70
     8
 71
     3
 72
     8
 73
     4
 74
     0
 42
0.000000001
 43
0.0000000001
 40
0.5796662686722268
 40
0.5796662686722268
 40
0.5796662686722268
 40
0.5796662686722268
 40
0.5803053353718532
 40
0.5803053353718532
 40
0.5803053353718532
 40
0.5803053353718532
 10
-25.39633641432848
 20
-3.388169276867629
 30
0.0
 10
-25.39651978052586
 20
-3.386174937780129
 30
0.0
 10
-25.39670298024959
 20
-3.38418309689975
 30
0.0
 10
-25.39688601423534
 20
-3.382193758197256
 30
0.0
  0
SPLINE
  5
11E18
330
11E14
100
AcDbEntity
  8
0
100
AcDbSpline
210
0.0
220
0.0
230
1.0
 70
     8
 71
     3
 72
     8
 73
     4
 74
     0
 42
0.000000001
 43
0.0000000001
 40
0.0383925184356711
 40
0.0383925184356711
 40
0.0383925184356711
 40
0.0383925184356711
 40
0.0385542808406697
 40
0.0385542808406697
 40
0.0385542808406697
 40
0.0385542808406697
 10
25.39688599369513
 20
-3.382193756307362
 30
0.0
 10
25.39670296683193
 20
-3.384183166072478
 30
0.0
 10
25.39651977494403
 20
-3.386174998486679
 30
0.0
 10
25.39633641432804
 20
-3.388169276869473
 30
0.0
  0
SPLINE
  5
11E19
330
11E14
100
AcDbEntity
  8
0
100
AcDbSpline
210
0.0
220
0.0
230
1.0
 70
     8
 71
     3
 72
     8
 73
     4
 74
     0
 42
0.000000001
 43
0.0000000001
 40
0.112493460516082
 40
0.112493460516082
 40
0.112493460516082
 40
0.112493460516082
 40
0.210398386415826
 40
0.210398386415826
 40
0.210398386415826
 40
0.210398386415826
 10
25.39633641432803
 20
-3.388169276869468
 30
0.0
 10
25.13350053403732
 20
-3.195019980947892
 30
0.0
 10
24.83900434332957
 20
-3.049379347591644
 30
0.0
 10
24.52624000000011
 20
-2.957723140123284
 30
0.0
  0
SPLINE
  5
11E1A
330
11E14
100
AcDbEntity
  8
0
100
AcDbSpline
210
0.0
220
0.0
230
1.0
 70
     8
 71
     3
 72
    10
 73
     6
 74
     0
 42
0.000000001
 43
0.0000000001
 40
0.2555763673393018
 40
0.2555763673393018
 40
0.2555763673393018
 40
0.2555763673393018
 40
0.3279364488154204
 40
0.3279364488154204
 40
0.3534231846692982
 40
0.3534231846692982
 40
0.3534231846692982
 40
0.3534231846692982
 10
-24.52623999999999
 20
-2.95772314012323
 30
0.0
 10
-24.75673175846124
 20
-3.025270719188501
 30
0.0
 10
-24.97806878028245
 20
-3.122358399780957
 30
0.0
 10
-25.25735175621378
 20
-3.290818464404063
 30
0.0
 10
-25.32799788034996
 20
-3.337949601848513
 30
0.0
 10
-25.3963364143283
 20
-3.388169276869618
 30
0.0
  0
LINE
  5
11E1B
330
11E14
100
AcDbEntity
  8
0
100
AcDbLine
 10
-24.52623999999983
 20
-63.38522269887842
 30
0.0
 11
-24.52623999999985
 21
-57.53560269887843
 31
0.0
  0
LINE
  5
11E1C
330
11E14
100
AcDbEntity
  8
0
100
AcDbLine
 10
-24.52623999999997
 20
-14.58761026755086
 30
0.0
 11
-24.52623999999985
 21
-57.53560269887845
 31
0.0
  0
LINE
  5
11E1D
330
11E14
100
AcDbEntity
  8
0
100
AcDbLine
 10
-24.52624
 20
-6.959599999999978
 30
0.0
 11
-24.52623999999999
 21
-7.965308989398916
 31
0.0
  0
LINE
  5
11E1E
330
11E14
100
AcDbEntity
  8
0
100
AcDbLine
 10
-24.52624
 20
-2.957723140123235
 30
0.0
 11
-24.52624
 21
-6.959599999999977
 31
0.0
  0
SPLINE
  5
11E1F
330
11E14
100
AcDbEntity
  8
0
100
AcDbSpline
210
0.0
220
0.0
230
1.0
 70
     8
 71
     3
 72
    16
 73
    12
 74
     0
 42
0.000000001
 43
0.0000000001
 40
0.0
 40
0.0
 40
0.0
 40
0.0
 40
0.1112442988749755
 40
0.1112442988749755
 40
0.2224299255202947
 40
0.2224299255202947
 40
0.3336155270249801
 40
0.3336155270249801
 40
0.3908647803495944
 40
0.3908647803495944
 40
0.4481146790159932
 40
0.4481146790159932
 40
0.4481146790159932
 40
0.4481146790159932
 10
-26.57858963636958
 20
-5.689599999999997
 30
0.0
 10
-26.57844587770874
 20
-5.318877171130194
 30
0.0
 10
-26.50584784889924
 20
-4.951704178954904
 30
0.0
 10
-26.22398131287213
 20
-4.266036038570462
 30
0.0
 10
-26.01748100359884
 20
-3.954073954365506
 30
0.0
 10
-25.49650851063028
 20
-3.426848963536107
 30
0.0
 10
-25.18701957328659
 20
-3.216629105318402
 30
0.0
 10
-24.67032774283944
 20
-2.996985821567501
 30
0.0
 10
-24.48764534511047
 20
-2.940182084638887
 30
0.0
 10
-24.11366857114825
 20
-2.863992524332541
 30
0.0
 10
-23.92332083167409
 20
-2.8448
 30
0.0
 10
-23.73249000000003
 20
-2.8448
 30
0.0
  0
LINE
  5
11E20
330
11E14
100
AcDbEntity
  8
0
100
AcDbLine
 10
24.52623999999995
 20
-2.957723140123233
 30
0.0
 11
24.52623999999993
 21
-6.95959999999998
 31
0.0
  0
LINE
  5
11E21
330
11E14
100
AcDbEntity
  8
0
100
AcDbLine
 10
24.52623999999993
 20
-6.959599999999978
 30
0.0
 11
24.52623999999993
 21
-7.965308989398897
 31
0.0
  0
LINE
  5
11E22
330
11E14
100
AcDbEntity
  8
0
100
AcDbLine
 10
24.5262399999999
 20
-14.58761026755086
 30
0.0
 11
24.52623999999979
 21
-57.53560269887842
 31
0.0
  0
LINE
  5
11E23
330
11E14
100
AcDbEntity
  8
0
100
AcDbLine
 10
24.52623999999978
 20
-63.38522269887842
 30
0.0
 11
24.52623999999979
 21
-57.53560269887843
 31
0.0
  0
LINE
  5
11E24
330
11E14
100
AcDbEntity
  8
0
100
AcDbLine
 10
-29.34333251941528
 20
-57.53560269887829
 30
0.0
 11
-31.96273670744752
 21
-5.689600000000014
 31
0.0
  0
LINE
  5
11E25
330
11E14
100
AcDbEntity
  8
0
100
AcDbLine
 10
-29.1175033646282
 20
-5.689600000000014
 30
0.0
 11
-26.49896579623438
 21
-57.51844965151087
 31
0.0
  0
LINE
  5
11E26
330
11E14
100
AcDbEntity
  8
0
100
AcDbLine
 10
-26.49766556959474
 20
-57.53560269887835
 30
0.0
 11
-29.34333251941528
 21
-57.53560269887829
 31
0.0
  0
ELLIPSE
  5
11E27
330
11E14
100
AcDbEntity
  8
0
100
AcDbEllipse
 10
-23.65459907305348
 20
-57.50129660414346
 30
0.0
 11
2.844799999999998
 21
-0.0000000000000003
 31
0.0
210
0.0
220
0.0
230
1.0
 40
0.3454890037636
 41
3.159045946109742
 42
3.176504558042763
  0
LINE
  5
11E28
330
11E14
100
AcDbEntity
  8
0
100
AcDbLine
 10
-26.57858963636959
 20
-5.689600000000005
 30
0.0
 11
-26.57896798351426
 21
-6.931577344458622
 31
0.0
  0
LINE
  5
11E29
330
11E14
100
AcDbEntity
  8
0
100
AcDbLine
 10
26.54878854626311
 20
-7.965308989398899
 30
0.0
 11
26.56123903918932
 21
-7.9653089893989
 31
0.0
  0
LINE
  5
11E2A
330
11E14
100
AcDbEntity
  8
0
100
AcDbLine
 10
26.5789679835142
 20
-6.931577344458625
 30
0.0
 11
26.57858963636952
 21
-5.689600000000001
 31
0.0
  0
LINE
  5
11E2B
330
11E14
100
AcDbEntity
  8
0
100
AcDbLine
 10
-26.56123903918939
 20
-7.965308989398903
 30
0.0
 11
-26.49896579623437
 21
-7.965308989398901
 31
0.0
  0
LINE
  5
11E2C
330
11E14
100
AcDbEntity
  8
0
100
AcDbLine
 10
-23.65459907305348
 20
-7.965308989398898
 30
0.0
 11
-21.16062020021731
 21
-7.965308989398897
 31
0.0
  0
LINE
  5
11E2D
330
11E14
100
AcDbEntity
  8
0
100
AcDbLine
 10
-21.1606202002173
 20
-14.58761026755086
 30
0.0
 11
-21.16062020021731
 21
-7.965308989398951
 31
0.0
  0
LINE
  5
11E2E
330
11E14
100
AcDbEntity
  8
0
100
AcDbLine
 10
-21.16062020021731
 20
-7.965308989398951
 30
0.0
 11
23.70442182308218
 21
-7.965308989398892
 31
0.0
  0
LINE
  5
11E2F
330
11E14
100
AcDbEntity
  8
0
100
AcDbLine
 10
-24.52623999999997
 20
-14.58761026755086
 30
0.0
 11
24.5262399999999
 21
-14.58761026755086
 31
0.0
  0
ELLIPSE
  5
11E30
330
11E14
100
AcDbEntity
  8
0
100
AcDbEllipse
 10
-26.56123903918939
 20
-6.949308989398903
 30
0.0
 11
-0.0000000000000005
 21
-1.015999999999999
 31
0.0
210
0.0
220
0.0
230
1.0
 40
0.0174524064372838
 41
4.694935687864745
 42
6.283185307179557
  0
ELLIPSE
  5
11E31
330
11E14
100
AcDbEntity
  8
0
100
AcDbEllipse
 10
26.56123903918932
 20
-6.949308989398903
 30
0.0
 11
0.0000000000000002
 21
-1.016
 31
0.0
210
0.0
220
0.0
230
1.0
 40
0.0174524064372845
 41
0.0
 42
1.588249619314827
  0
LINE
  5
11E32
330
11E14
100
AcDbEntity
  8
0
100
AcDbLine
 10
31.74999999999979
 20
0.0
 30
0.0
 11
19.84374999999978
 21
0.0
 31
0.0
  0
LINE
  5
11E33
330
11E14
100
AcDbEntity
  8
0
100
AcDbLine
 10
19.84374999999978
 20
0.0
 30
0.0
 11
19.84374999999978
 21
-2.8448
 31
0.0
  0
LINE
  5
11E34
330
11E14
100
AcDbEntity
  8
0
100
AcDbLine
 10
19.84374999999978
 20
-2.8448
 30
0.0
 11
31.74999999999979
 21
-2.8448
 31
0.0
  0
LINE
  5
11E35
330
11E14
100
AcDbEntity
  8
0
100
AcDbLine
 10
31.74999999999979
 20
-2.8448
 30
0.0
 11
31.74999999999979
 21
0.0
 31
0.0
  0
LINE
  5
11E36
330
11E14
100
AcDbEntity
  8
0
100
AcDbLine
 10
-31.7500000000002
 20
-2.8448
 30
0.0
 11
-19.84375000000022
 21
-2.8448
 31
0.0
  0
LINE
  5
11E37
330
11E14
100
AcDbEntity
  8
0
100
AcDbLine
 10
-19.84375000000022
 20
0.0
 30
0.0
 11
-31.7500000000002
 21
0.0
 31
0.0
  0
LINE
  5
11E38
330
11E14
100
AcDbEntity
  8
0
100
AcDbLine
 10
-31.7500000000002
 20
0.0
 30
0.0
 11
-31.7500000000002
 21
-2.8448
 31
0.0
  0
LINE
  5
11E39
330
11E14
100
AcDbEntity
  8
0
100
AcDbLine
 10
-19.84375000000022
 20
-2.8448
 30
0.0
 11
-19.84375000000022
 21
0.0
 31
0.0
  0
LINE
  5
11E3A
330
11E14
100
AcDbEntity
  8
0
100
AcDbLine
 10
19.84374999999978
 20
-2.8448
 30
0.0
 11
-19.84375000000022
 21
-2.8448
 31
0.0
  0
LINE
  5
11E3B
330
11E14
100
AcDbEntity
  8
0
100
AcDbLine
 10
19.84374999999978
 20
0.0
 30
0.0
 11
-19.84375000000022
 21
0.0
 31
0.0
  0
ELLIPSE
  5
11E3C
330
11E14
100
AcDbEntity
  8
0
100
AcDbEllipse
 10
26.26979316565084
 20
-5.6896
 30
0.0
 11
-2.098941014568594
 21
-2.023885778974231
 31
0.0
210
0.0
220
0.0
230
1.0
 40
0.9524770690566803
 41
2.3500568320833
 42
2.358995447861829
  0
LINE
  5
11E3D
330
11E14
100
AcDbEntity
  8
0
100
AcDbLine
 10
29.11626493654912
 20
-5.689600000000005
 30
0.0
 11
31.96273670744739
 21
-5.689600000000005
 31
0.0
  0
LINE
  5
11E3E
330
11E14
100
AcDbEntity
  8
0
100
AcDbLine
 10
31.77948455041033
 20
-3.051963557481285
 30
0.0
 11
31.96273670744739
 21
-5.689600000000005
 31
0.0
  0
SPLINE
  5
11E3F
330
11E14
100
AcDbEntity
  8
0
100
AcDbSpline
210
0.0
220
0.0
230
1.0
 70
     8
 71
     3
 72
    16
 73
    12
 74
     0
 42
0.000000001
 43
0.0000000001
 40
-0.6535552917940049
 40
-0.6535552917940049
 40
-0.6535552917940049
 40
-0.6535552917940049
 40
-0.5440372284817718
 40
-0.5440372284817718
 40
-0.4153261261603481
 40
-0.4153261261603481
 40
-0.2323475610723142
 40
-0.2323475610723142
 40
-0.1902941471934274
 40
-0.1902941471934274
 40
-0.1778435367564611
 40
-0.1778435367564611
 40
-0.1778435367564611
 40
-0.1778435367564611
 10
29.11738969994596
 20
-5.664171764450901
 30
0.0
 10
29.13566944675971
 20
-5.360185913723451
 30
0.0
 10
29.26349223035667
 20
-5.060887908090368
 30
0.0
 10
29.77170091016276
 20
-4.424948594493486
 30
0.0
 10
30.15270617776057
 20
-4.140573634773223
 30
0.0
 10
31.00289940684008
 20
-3.594793490570209
 30
0.0
 10
31.48523848934453
 20
-3.365830308464638
 30
0.0
 10
31.73023767223251
 20
-3.157203148823437
 30
0.0
 10
31.76346103611564
 20
-3.119410550555208
 30
0.0
 10
31.77857421867519
 20
-3.073238211285217
 30
0.0
 10
31.78022306640143
 20
-3.06259337337568
 30
0.0
 10
31.77948455041033
 20
-3.051963557481285
 30
0.0
  0
LINE
  5
11E40
330
11E14
100
AcDbEntity
  8
0
100
AcDbLine
 10
29.11719191756383
 20
-5.713369649228596
 30
0.0
 11
29.11626493654912
 21
-5.689600000000005
 31
0.0
  0
LINE
  5
11E41
330
11E14
100
AcDbEntity
  8
0
100
AcDbLine
 10
31.96273670744739
 20
-5.689600000000005
 30
0.0
 11
29.11719191756383
 21
-5.713369649228596
 31
0.0
  0
SPLINE
  5
11E42
330
11E14
100
AcDbEntity
  8
0
100
AcDbSpline
210
0.0
220
0.0
230
1.0
 70
     8
 71
     3
 72
     8
 73
     4
 74
     0
 42
0.000000001
 43
0.0000000001
 40
-0.1208672268700966
 40
-0.1208672268700966
 40
-0.1208672268700966
 40
-0.1208672268700966
 40
0.0
 40
0.0
 40
0.0
 40
0.0
 10
31.77948455041033
 20
-3.051963557481295
 30
0.0
 10
31.77004190042334
 20
-2.916050954200967
 30
0.0
 10
31.76003910223795
 20
-2.8448
 30
0.0
 10
31.7499999999999
 20
-2.8448
 30
0.0
  0
SPLINE
  5
11E43
330
11E14
100
AcDbEntity
  8
0
100
AcDbSpline
210
0.0
220
0.0
230
1.0
 70
     8
 71
     3
 72
    20
 73
    16
 74
     0
 42
0.000000001
 43
0.0000000001
 40
-0.1598489026684464
 40
-0.1598489026684464
 40
-0.1598489026684464
 40
-0.1598489026684464
 40
-0.1367479565069849
 40
-0.1367479565069849
 40
-0.1153474573593735
 40
-0.1153474573593735
 40
-0.0844356954966832
 40
-0.0844356954966832
 40
-0.049836685880347
 40
-0.049836685880347
 40
-0.0233359865518351
 40
-0.0233359865518351
 40
-0.0083287469220624
 40
-0.0083287469220624
 40
0.0
 40
0.0
 40
0.0
 40
0.0
 10
31.7499999999999
 20
0.0
 30
0.0
 10
31.76822676893716
 20
0.0
 30
0.0
 10
31.78627419038316
 20
-0.1170646193107676
 30
0.0
 10
31.81990530374966
 20
-0.5320908661826608
 30
0.0
 10
31.83532808979566
 20
-0.8128805521391701
 30
0.0
 10
31.87108798478929
 20
-1.65268507043916
 30
0.0
 10
31.89015092891296
 20
-2.269588512060058
 30
0.0
 10
31.92755071936161
 20
-3.721628510922871
 30
0.0
 10
31.94398328264996
 20
-4.513114053326409
 30
0.0
 10
31.95716245576891
 20
-5.183553588469389
 30
0.0
 10
31.95968751885045
 20
-5.339815195820333
 30
0.0
 10
31.9617857111291
 20
-5.50613052989592
 30
0.0
 10
31.96226832224762
 20
-5.558546960981879
 30
0.0
 10
31.96266152402536
 20
-5.634640376037901
 30
0.0
 10
31.96273670744739
 20
-5.661837510259797
 30
0.0
 10
31.96273670744739
 20
-5.689600000000005
 30
0.0
  0
LINE
  5
11E44
330
11E14
100
AcDbEntity
  8
0
100
AcDbLine
 10
-29.11626493654923
 20
-5.68960000000001
 30
0.0
 11
-29.1175033646282
 21
-5.689600000000014
 31
0.0
  0
LINE
  5
11E45
330
11E14
100
AcDbEntity
  8
0
100
AcDbLine
 10
-31.96273670744752
 20
-5.68960000000001
 30
0.0
 11
-29.1175033646282
 21
-5.689600000000014
 31
0.0
  0
ELLIPSE
  5
11E46
330
11E14
100
AcDbEntity
  8
0
100
AcDbEllipse
 10
-26.26979316565095
 20
-5.6896
 30
0.0
 11
-2.098941014568802
 21
2.02388577897402
 31
0.0
210
0.0
220
0.0
230
0.9999999999999998
 40
0.9524770690566793
 41
0.7825972057278508
 42
0.7915358215063753
  0
SPLINE
  5
11E47
330
11E14
100
AcDbEntity
  8
0
100
AcDbSpline
210
0.0
220
0.0
230
1.0
 70
     8
 71
     3
 72
    16
 73
    12
 74
     0
 42
0.000000001
 43
0.0000000001
 40
-1.162339603698974
 40
-1.162339603698974
 40
-1.162339603698974
 40
-1.162339603698974
 40
-1.147834256302633
 40
-1.147834256302633
 40
-1.036972199347248
 40
-1.036972199347248
 40
-0.6452557208226662
 40
-0.6452557208226662
 40
-0.2954461127886789
 40
-0.2954461127886789
 40
0.0
 40
0.0
 40
0.0
 40
0.0
 10
-31.77948455041049
 20
-3.051963557481296
 30
0.0
 10
-31.77980233775019
 20
-3.056537623520823
 30
0.0
 10
-31.77967857467595
 20
-3.061122903501981
 30
0.0
 10
-31.77515371688931
 20
-3.100788378345513
 30
0.0
 10
-31.74748433013539
 20
-3.139097920473906
 30
0.0
 10
-31.54217478147735
 20
-3.327004260279289
 30
0.0
 10
-31.15503911134919
 20
-3.518978775113827
 30
0.0
 10
-30.33917014601506
 20
-4.010193613962917
 30
0.0
 10
-29.89076265761803
 20
-4.312395747308251
 30
0.0
 10
-29.28797330744038
 20
-5.00594528471094
 30
0.0
 10
-29.13736326506717
 20
-5.332018302630169
 30
0.0
 10
-29.11738969994608
 20
-5.664171764450887
 30
0.0
  0
LINE
  5
11E48
330
11E14
100
AcDbEntity
  8
0
100
AcDbLine
 10
-31.96273670744752
 20
-5.68960000000001
 30
0.0
 11
-31.77948455041049
 21
-3.051963557481296
 31
0.0
  0
SPLINE
  5
11E49
330
11E14
100
AcDbEntity
  8
0
100
AcDbSpline
210
0.0
220
0.0
230
1.0
 70
     8
 71
     3
 72
    10
 73
     6
 74
     0
 42
0.000000001
 43
0.0000000001
 40
-0.4780248249070606
 40
-0.4780248249070606
 40
-0.4780248249070606
 40
-0.4780248249070606
 40
-0.3962814415815694
 40
-0.3962814415815694
 40
-0.3577207361501106
 40
-0.3577207361501106
 40
-0.3577207361501106
 40
-0.3577207361501106
 10
-31.74999999999997
 20
-2.844800000000001
 30
0.0
 10
-31.75681586168306
 20
-2.8448
 30
0.0
 10
-31.7636189004921
 20
-2.877627603625999
 30
0.0
 10
-31.7733739228161
 20
-2.971475473671537
 30
0.0
 10
-31.77645893851259
 20
-3.008413809091225
 30
0.0
 10
-31.77948455041048
 20
-3.051963557481291
 30
0.0
  0
SPLINE
  5
11E4A
330
11E14
100
AcDbEntity
  8
0
100
AcDbSpline
210
0.0
220
0.0
230
1.0
 70
     8
 71
     3
 72
    22
 73
    18
 74
     0
 42
0.000000001
 43
0.0000000001
 40
-1.151047167356664
 40
-1.151047167356664
 40
-1.151047167356664
 40
-1.151047167356664
 40
-1.132990630921316
 40
-1.132990630921316
 40
-1.109750141947807
 40
-1.109750141947807
 40
-1.017289431522064
 40
-1.017289431522064
 40
-0.8803209745714525
 40
-0.8803209745714525
 40
-0.8219804066584456
 40
-0.8219804066584456
 40
-0.5620159928507338
 40
-0.5620159928507338
 40
-0.2615037979130166
 40
-0.2615037979130166
 40
0.0
 40
0.0
 40
0.0
 40
0.0
 10
-31.96273670744751
 20
-5.689600000000009
 30
0.0
 10
-31.96273670744751
 20
-5.669645572584631
 30
0.0
 10
-31.96269790232492
 20
-5.64991971287445
 30
0.0
 10
-31.96252678296691
 20
-5.604814168027225
 30
0.0
 10
-31.96237268925756
 20
-5.579959597576666
 30
0.0
 10
-31.96139655551882
 20
-5.458478936109446
 30
0.0
 10
-31.95971173501723
 20
-5.33855473414917
 30
0.0
 10
-31.95159342903536
 20
-4.887016778656294
 30
0.0
 10
-31.94365738069473
 20
-4.502505459088588
 30
0.0
 10
-31.9329838109665
 20
-4.012353508093281
 30
0.0
 10
-31.92971926546129
 20
-3.866159395985829
 30
0.0
 10
-31.91177023311274
 20
-3.084210587795849
 30
0.0
 10
-31.89590810836067
 20
-2.471869528919888
 30
0.0
 10
-31.8587377926581
 20
-1.319738790029003
 30
0.0
 10
-31.83713925366885
 20
-0.8101561828613842
 30
0.0
 10
-31.79312979990659
 20
-0.1659320256982862
 30
0.0
 10
-31.77172022500701
 20
-0.0000000000000013
 30
0.0
 10
-31.75000000000582
 20
0.0
 30
0.0
  0
CIRCLE
  5
11E4B
330
11E14
100
AcDbEntity
  8
0
100
AcDbCircle
 10
0.0000000000000934
 20
-33.33749999999995
 30
0.0
 40
8.724900000000001
  0
LINE
  5
11E4C
330
11E14
100
AcDbEntity
  8
0
100
AcDbLine
 10
26.54878854626312
 20
-57.53560269887836
 30
0.0
 11
29.11719191756383
 21
-5.713369649228594
 31
0.0
  0
LINE
  5
11E4D
330
11E14
100
AcDbEntity
  8
0
100
AcDbLine
 10
26.54878854626312
 20
-57.53560269887836
 30
0.0
 11
29.39315526944401
 21
-57.53560269887836
 31
0.0
  0
LINE
  5
11E4E
330
11E14
100
AcDbEntity
  8
0
100
AcDbLine
 10
31.96273670744739
 20
-5.689600000000005
 30
0.0
 11
29.39315526944401
 21
-57.53560269887836
 31
0.0
  0
LINE
  5
11E4F
330
11E14
100
AcDbEntity
  8
0
100
AcDbLine
 10
-26.49766556959474
 20
-57.53560269887829
 30
0.0
 11
-24.52623999999985
 21
-57.53560269887829
 31
0.0
  0
LINE
  5
11E50
330
11E14
100
AcDbEntity
  8
0
100
AcDbLine
 10
-23.65459907305334
 20
-7.965308989398922
 30
0.0
 11
-26.49896579623437
 21
-7.9653089893989
 31
0.0
  0
SPLINE
  5
11E51
330
11E14
100
AcDbEntity
  8
0
100
AcDbSpline
210
0.0
220
0.0
230
1.0
 70
     8
 71
     3
 72
    16
 73
    12
 74
     0
 42
0.000000001
 43
0.0000000001
 40
0.0
 40
0.0
 40
0.0
 40
0.0
 40
0.1112442988757188
 40
0.1112442988757188
 40
0.2224299255224647
 40
0.2224299255224647
 40
0.333615527028449
 40
0.333615527028449
 40
0.3908647803534917
 40
0.3908647803534917
 40
0.4481146790191246
 40
0.4481146790191246
 40
0.4481146790191246
 40
0.4481146790191246
 10
23.73248999999997
 20
-2.8448
 30
0.0
 10
24.10330012465038
 20
-2.8448
 30
0.0
 10
24.47055961111118
 20
-2.917266649319577
 30
0.0
 10
25.15641077578625
 20
-3.198888622866325
 30
0.0
 10
25.4684676825881
 20
-3.405278030311678
 30
0.0
 10
25.99589975393457
 20
-3.926042458785307
 30
0.0
 10
26.20622993054267
 20
-4.235436182398993
 30
0.0
 10
26.42605743653669
 20
-4.751989011364275
 30
0.0
 10
26.48292632093394
 20
-4.934625426550524
 30
0.0
 10
26.55925224913474
 20
-5.308511173191287
 30
0.0
 10
26.57851565353331
 20
-5.498814093540915
 30
0.0
 10
26.57858963636952
 20
-5.6896
 30
0.0
  0
LINE
  5
11E52
330
11E14
100
AcDbEntity
  8
0
100
AcDbLine
 10
26.54878854626311
 20
-7.965308989398893
 30
0.0
 11
23.70442182308219
 21
-7.965308989398892
 31
0.0
  0
LINE
  5
11E53
330
11E14
100
AcDbEntity
  8
0
100
AcDbLine
 10
24.52623999999979
 20
-57.53560269887834
 30
0.0
 11
26.54878854626311
 21
-57.53560269887836
 31
0.0
  0
LINE
  5
11E54
330
11E14
100
AcDbEntity
  8
0
100
AcDbLine
 10
24.52623999999977
 20
-63.38522269887845
 30
0.0
 11
-24.52623999999984
 21
-63.38522269887842
 31
0.0
  0
ENDBLK
  5
11E16
330
11E14
100
AcDbEntity
  8
0
100
AcDbBlockEnd
  0
BLOCK
  5
11E56
330
11E55
100
AcDbEntity
  8
0
100
AcDbBlockBegin
  2
HTT4-Bottom
 70
     0
 10
0.0
 20
0.0
 30
0.0
  3
HTT4-Bottom
  1

  0
SPLINE
  5
11E58
330
11E55
100
AcDbEntity
  8
0
100
AcDbSpline
210
0.0
220
0.0
230
1.0
 70
     8
 71
     3
 72
    16
 73
    12
 74
     0
 42
0.000000001
 43
0.0000000001
 40
0.0
 40
0.0
 40
0.0
 40
0.0
 40
0.0428423897057485
 40
0.0428423897057485
 40
0.0831477185022506
 40
0.0831477185022506
 40
0.1225143143222241
 40
0.1225143143222241
 40
0.1430971646864442
 40
0.1430971646864442
 40
0.1636604262610713
 40
0.1636604262610713
 40
0.1636604262610713
 40
0.1636604262610713
 10
-25.54927582106265
 20
0.29783453652793
 30
0.0
 10
-25.41394472374066
 20
0.2522383981459942
 30
0.0
 10
-25.27814445798473
 20
0.2125129171888526
 30
0.0
 10
-25.02959157608
 20
0.1489811800833931
 30
0.0
 10
-24.91896669022449
 20
0.125049110654375
 30
0.0
 10
-24.73302382972606
 20
0.0891328072827042
 30
0.0
 10
-24.65916922865702
 20
0.077200709299573
 30
0.0
 10
-24.58101476774559
 20
0.0653828189127782
 30
0.0
 10
-24.56056660519003
 20
0.0625095453372462
 30
0.0
 10
-24.5331496168497
 20
0.0588185402237925
 30
0.0
 10
-24.52624000000002
 20
0.0580069107039163
 30
0.0
 10
-24.52624000000002
 20
0.0581789521198035
 30
0.0
  0
SPLINE
  5
11E59
330
11E55
100
AcDbEntity
  8
0
100
AcDbSpline
210
0.0
220
0.0
230
1.0
 70
     8
 71
     3
 72
    16
 73
    12
 74
     0
 42
0.000000001
 43
0.0000000001
 40
0.0
 40
0.0
 40
0.0
 40
0.0
 40
0.0393055842810919
 40
0.0393055842810919
 40
0.0787112030853745
 40
0.0787112030853745
 40
0.1184454968045729
 40
0.1184454968045729
 40
0.1407236048268624
 40
0.1407236048268624
 40
0.1633022578477026
 40
0.1633022578477026
 40
0.1633022578477026
 40
0.1633022578477026
 10
24.52623999999995
 20
0.0581789521198053
 30
0.0
 10
24.52623999999995
 20
0.0578494223210692
 30
0.0
 10
24.55160640936138
 20
0.0610159677804091
 30
0.0
 10
24.65007226062134
 20
0.0757556043037763
 30
0.0
 10
24.72226290910465
 20
0.0872733539391152
 30
0.0
 10
24.90430776270802
 20
0.1220239997496085
 30
0.0
 10
25.01225405327521
 20
0.1450446200895605
 30
0.0
 10
25.19654046786604
 20
0.1914364833697814
 30
0.0
 10
25.26522636712523
 20
0.2100263685957723
 30
0.0
 10
25.40610037214231
 20
0.251235707768293
 30
0.0
 10
25.47785818758215
 20
0.2737723042433684
 30
0.0
 10
25.54927582106258
 20
0.2978345365279303
 30
0.0
  0
SPLINE
  5
11E5A
330
11E55
100
AcDbEntity
  8
0
100
AcDbSpline
210
0.0
220
0.0
230
1.0
 70
     8
 71
     3
 72
    16
 73
    12
 74
     0
 42
0.000000001
 43
0.0000000001
 40
-0.1969447702847755
 40
-0.1969447702847755
 40
-0.1969447702847755
 40
-0.1969447702847755
 40
-0.1738095768924023
 40
-0.1738095768924023
 40
-0.1457909357767882
 40
-0.1457909357767882
 40
-0.1012418803318874
 40
-0.1012418803318874
 40
-0.0538491035528688
 40
-0.0538491035528688
 40
-0.0193284650333396
 40
-0.0193284650333396
 40
-0.0193284650333396
 40
-0.0193284650333396
 10
-24.52624
 20
2.938958711969374
 30
0.0
 10
-24.52624
 20
2.940199086728505
 30
0.0
 10
-24.53283360860763
 20
2.943017922029733
 30
0.0
 10
-24.56164079216684
 20
2.953325539544333
 30
0.0
 10
-24.58673939180125
 20
2.961623993870358
 30
0.0
 10
-24.67378051073518
 20
2.992049945702766
 30
0.0
 10
-24.74738592320246
 20
3.019005570494593
 30
0.0
 10
-24.92909805145812
 20
3.099182070701748
 30
0.0
 10
-25.03495237872803
 20
3.152419927241547
 30
0.0
 10
-25.22606577023116
 20
3.26744552837353
 30
0.0
 10
-25.31023301330356
 20
3.323552291294044
 30
0.0
 10
-25.39633641432829
 20
3.388169276869618
 30
0.0
  0
SPLINE
  5
11E5B
330
11E55
100
AcDbEntity
  8
0
100
AcDbSpline
210
0.0
220
0.0
230
1.0
 70
     8
 71
     3
 72
    18
 73
    14
 74
     0
 42
0.000000001
 43
0.0000000001
 40
0.5796662686722268
 40
0.5796662686722268
 40
0.5796662686722268
 40
0.5796662686722268
 40
0.7199107058766314
 40
0.7199107058766314
 40
0.7493715714560248
 40
0.7493715714560248
 40
0.7633980054398885
 40
0.7633980054398885
 40
0.7684166199020913
 40
0.7684166199020913
 40
0.7713193555437545
 40
0.7713193555437545
 40
0.7741664847523603
 40
0.7741664847523603
 40
0.7741664847523603
 40
0.7741664847523603
 10
-25.39633641432848
 20
3.388169276867629
 30
0.0
 10
-25.43657648499601
 20
2.950507663322948
 30
0.0
 10
-25.4687993236551
 20
2.633157608598419
 30
0.0
 10
-25.50749845418125
 20
2.445508769799251
 30
0.0
 10
-25.51472089922216
 20
2.417599027854622
 30
0.0
 10
-25.52612854653073
 20
2.390215993256666
 30
0.0
 10
-25.52987556858358
 20
2.383626913581449
 30
0.0
 10
-25.53507348657183
 20
2.378197306149494
 30
0.0
 10
-25.53668404667521
 20
2.376857928132453
 30
0.0
 10
-25.53952977232658
 20
2.375548865357073
 30
0.0
 10
-25.54062600549134
 20
2.375244360295265
 30
0.0
 10
-25.54289617890872
 20
2.375114105351605
 30
0.0
 10
-25.54399091414317
 20
2.37528371161034
 30
0.0
 10
-25.545055241456
 20
2.375651037204564
 30
0.0
  0
SPLINE
  5
11E5C
330
11E55
100
AcDbEntity
  8
0
100
AcDbSpline
210
0.0
220
0.0
230
1.0
 70
     8
 71
     3
 72
    22
 73
    18
 74
     0
 42
0.000000001
 43
0.0000000001
 40
0.0
 40
0.0
 40
0.0
 40
0.0
 40
0.0003426164617339
 40
0.0003426164617339
 40
0.0006766732223273
 40
0.0006766732223273
 40
0.0011414560853084
 40
0.0011414560853084
 40
0.0020756938881416
 40
0.0020756938881416
 40
0.0047192259313054
 40
0.0047192259313054
 40
0.013644392909212
 40
0.013644392909212
 40
0.0311331856773612
 40
0.0311331856773612
 40
0.0385542808406697
 40
0.0385542808406697
 40
0.0385542808406697
 40
0.0385542808406697
 10
25.54505524145602
 20
2.375651037209771
 30
0.0
 10
25.5439756725095
 20
2.375278451352007
 30
0.0
 10
25.5428654665079
 20
2.375109511877029
 30
0.0
 10
25.54061430755107
 20
2.375251489273908
 30
0.0
 10
25.53955005192554
 20
2.375545795872647
 30
0.0
 10
25.5371255623107
 20
2.376646472328538
 30
0.0
 10
25.53583973608104
 20
2.377596199236205
 30
0.0
 10
25.53241597215044
 20
2.380755641703422
 30
0.0
 10
25.53041647914818
 20
2.383561824135512
 30
0.0
 10
25.52423682180036
 20
2.393692565361099
 30
0.0
 10
25.5202516250875
 20
2.403988274024167
 30
0.0
 10
25.50598339722452
 20
2.447386813075356
 30
0.0
 10
25.49500433759613
 20
2.501870514962132
 30
0.0
 10
25.4618526394175
 20
2.718422218849838
 30
0.0
 10
25.43985728414704
 20
2.930237575477616
 30
0.0
 10
25.41280519155824
 20
3.210336117195945
 30
0.0
 10
25.40474836011036
 20
3.296678737637185
 30
0.0
 10
25.39633641432804
 20
3.388169276869473
 30
0.0
  0
SPLINE
  5
11E5D
330
11E55
100
AcDbEntity
  8
0
100
AcDbSpline
210
0.0
220
0.0
230
1.0
 70
     8
 71
     3
 72
    16
 73
    12
 74
     0
 42
0.000000001
 43
0.0000000001
 40
-0.1551265878925592
 40
-0.1551265878925592
 40
-0.1551265878925592
 40
-0.1551265878925592
 40
-0.1264870702588483
 40
-0.1264870702588483
 40
-0.0895242243710856
 40
-0.0895242243710856
 40
-0.0501065644589003
 40
-0.0501065644589003
 40
-0.0221900570286593
 40
-0.0221900570286593
 40
0.0
 40
0.0
 40
0.0
 40
0.0
 10
25.39633641432804
 20
3.388169276869472
 30
0.0
 10
25.3203948169002
 20
3.331178298032649
 30
0.0
 10
25.24295344041046
 20
3.278595417507339
 30
0.0
 10
25.06600835006161
 20
3.170099945586595
 30
0.0
 10
24.96936233666606
 20
3.119409442554681
 30
0.0
 10
24.78707478066108
 20
3.034935601968282
 30
0.0
 10
24.70641966831822
 20
3.004079181005814
 30
0.0
 10
24.60251247512641
 20
2.966876182254936
 30
0.0
 10
24.5702691544373
 20
2.956276451492328
 30
0.0
 10
24.53431795239384
 20
2.943631836754958
 30
0.0
 10
24.52623999999993
 20
2.940331508156796
 30
0.0
 10
24.52623999999993
 20
2.938958711969374
 30
0.0
  0
SPLINE
  5
11E5E
330
11E55
100
AcDbEntity
  8
0
100
AcDbSpline
210
0.0
220
0.0
230
1.0
 70
     8
 71
     3
 72
     8
 73
     4
 74
     0
 42
0.000000001
 43
0.0000000001
 40
0.112493460516082
 40
0.112493460516082
 40
0.112493460516082
 40
0.112493460516082
 40
0.210398386415826
 40
0.210398386415826
 40
0.210398386415826
 40
0.210398386415826
 10
25.39633641432803
 20
3.388169276869468
 30
0.0
 10
25.13350053403732
 20
3.195019980947892
 30
0.0
 10
24.83900434332957
 20
3.049379347591644
 30
0.0
 10
24.52624000000011
 20
2.957723140123284
 30
0.0
  0
LINE
  5
11E5F
330
11E55
100
AcDbEntity
  8
0
100
AcDbLine
 10
23.73248999999996
 20
0.0
 30
0.0
 11
24.52623999999995
 21
0.0
 31
0.0
  0
SPLINE
  5
11E60
330
11E55
100
AcDbEntity
  8
0
100
AcDbSpline
210
0.0
220
0.0
230
1.0
 70
     8
 71
     3
 72
    10
 73
     6
 74
     0
 42
0.000000001
 43
0.0000000001
 40
0.2555763673393018
 40
0.2555763673393018
 40
0.2555763673393018
 40
0.2555763673393018
 40
0.3279364488154204
 40
0.3279364488154204
 40
0.3534231846692982
 40
0.3534231846692982
 40
0.3534231846692982
 40
0.3534231846692982
 10
-24.52623999999999
 20
2.95772314012323
 30
0.0
 10
-24.75673175846124
 20
3.025270719188501
 30
0.0
 10
-24.97806878028245
 20
3.122358399780957
 30
0.0
 10
-25.25735175621378
 20
3.290818464404063
 30
0.0
 10
-25.32799788034996
 20
3.337949601848513
 30
0.0
 10
-25.3963364143283
 20
3.388169276869618
 30
0.0
  0
LINE
  5
11E61
330
11E55
100
AcDbEntity
  8
0
100
AcDbLine
 10
-23.73249000000001
 20
0.0
 30
0.0
 11
-24.52624000000001
 21
0.0
 31
0.0
  0
LINE
  5
11E62
330
11E55
100
AcDbEntity
  8
0
100
AcDbLine
 10
-24.52624000000001
 20
0.0
 30
0.0
 11
-24.52624
 21
6.959599999999978
 31
0.0
  0
LINE
  5
11E63
330
11E55
100
AcDbEntity
  8
0
100
AcDbLine
 10
-24.52623999999985
 20
57.53560269887842
 30
0.0
 11
-24.52624
 21
6.959599999999985
 31
0.0
  0
LINE
  5
11E64
330
11E55
100
AcDbEntity
  8
0
100
AcDbLine
 10
-24.52623999999985
 20
57.53560269887842
 30
0.0
 11
-24.52623999999983
 21
63.38522269887842
 31
0.0
  0
SPLINE
  5
11E65
330
11E55
100
AcDbEntity
  8
0
100
AcDbSpline
210
0.0
220
0.0
230
1.0
 70
     8
 71
     3
 72
    12
 73
     8
 74
     0
 42
0.000000001
 43
0.0000000001
 40
0.0
 40
0.0
 40
0.0
 40
0.0
 40
0.1112442988749755
 40
0.1112442988749755
 40
0.2224299255202947
 40
0.2224299255202947
 40
0.2700274158978349
 40
0.2700274158978349
 40
0.2700274158978349
 40
0.2700274158978349
 10
-26.57858963636958
 20
5.689599999999997
 30
0.0
 10
-26.57844587770874
 20
5.318877171130194
 30
0.0
 10
-26.50584784889924
 20
4.951704178954904
 30
0.0
 10
-26.22398131287213
 20
4.266036038570462
 30
0.0
 10
-26.01748100359884
 20
3.954073954365506
 30
0.0
 10
-25.64548307470798
 20
3.57761145913762
 30
0.0
 10
-25.52499111442323
 20
3.474546293326563
 30
0.0
 10
-25.39688533162057
 20
3.382194685730973
 30
0.0
  0
SPLINE
  5
11E66
330
11E55
100
AcDbEntity
  8
0
100
AcDbSpline
210
0.0
220
0.0
230
1.0
 70
     8
 71
     3
 72
    14
 73
    10
 74
     0
 42
0.000000001
 43
0.0000000001
 40
0.185189358431806
 40
0.185189358431806
 40
0.185189358431806
 40
0.185189358431806
 40
0.3332420225619788
 40
0.3332420225619788
 40
0.555530583797621
 40
0.555530583797621
 40
0.7257097298732722
 40
0.7257097298732722
 40
0.8955659581915817
 40
0.8955659581915817
 40
0.8955659581915817
 40
0.8955659581915817
 10
-25.54927582106263
 20
0.2978345365279297
 30
0.0
 10
-26.01499016395335
 20
0.4547443380820815
 30
0.0
 10
-26.45942197801974
 20
0.6716681827942589
 30
0.0
 10
-27.48911981649645
 20
1.352566321631438
 30
0.0
 10
-28.02144234885525
 20
1.878068565907697
 30
0.0
 10
-28.75704822529251
 20
2.95988905853894
 30
0.0
 10
-29.00409184151466
 20
3.474044821638381
 30
0.0
 10
-29.33760900730246
 20
4.557295562352364
 30
0.0
 10
-29.42252443684733
 20
5.120236959956303
 30
0.0
 10
-29.42295482219985
 20
5.686377377724413
 30
0.0
  0
LINE
  5
11E67
330
11E55
100
AcDbEntity
  8
0
100
AcDbLine
 10
-24.52624000000001
 20
0.0
 30
0.0
 11
-26.2722700218089
 21
0.0
 31
0.0
  0
LINE
  5
11E68
330
11E55
100
AcDbEntity
  8
0
100
AcDbLine
 10
24.5262399999998
 20
57.53560269887842
 30
0.0
 11
24.52623999999977
 21
63.38522269887842
 31
0.0
  0
LINE
  5
11E69
330
11E55
100
AcDbEntity
  8
0
100
AcDbLine
 10
24.52623999999979
 20
57.53560269887842
 30
0.0
 11
24.52623999999993
 21
6.959599999999976
 31
0.0
  0
LINE
  5
11E6A
330
11E55
100
AcDbEntity
  8
0
100
AcDbLine
 10
24.52623999999995
 20
0.0
 30
0.0
 11
24.52623999999993
 21
6.959599999999978
 31
0.0
  0
LINE
  5
11E6B
330
11E55
100
AcDbEntity
  8
0
100
AcDbLine
 10
26.27227002180878
 20
0.0
 30
0.0
 11
24.52623999999995
 21
0.0
 31
0.0
  0
SPLINE
  5
11E6C
330
11E55
100
AcDbEntity
  8
0
100
AcDbSpline
210
0.0
220
0.0
230
1.0
 70
     8
 71
     3
 72
    14
 73
    10
 74
     0
 42
0.000000001
 43
0.0000000001
 40
0.0
 40
0.0
 40
0.0
 40
0.0
 40
0.1109419577493359
 40
0.1109419577493359
 40
0.3332420225662498
 40
0.3332420225662498
 40
0.5555305838055239
 40
0.5555305838055239
 40
0.7106467842490901
 40
0.7106467842490901
 40
0.7106467842490901
 40
0.7106467842490901
 10
29.42295635955043
 20
5.6896
 30
0.0
 10
29.42288466230407
 20
5.319816293512607
 30
0.0
 10
29.38676863555114
 20
4.950911733108986
 30
0.0
 10
29.17155301755049
 20
3.861186932425145
 30
0.0
 10
28.88737778257495
 20
3.169222768153998
 30
0.0
 10
28.06980778794706
 20
1.93318631588103
 30
0.0
 10
27.54424327034869
 20
1.400925027409626
 30
0.0
 10
26.50385767486448
 20
0.6936879671956581
 30
0.0
 10
26.03881783341219
 20
0.4627724242757302
 30
0.0
 10
25.54927582106259
 20
0.2978345365279331
 30
0.0
  0
SPLINE
  5
11E6D
330
11E55
100
AcDbEntity
  8
0
100
AcDbSpline
210
0.0
220
0.0
230
1.0
 70
     8
 71
     3
 72
    14
 73
    10
 74
     0
 42
0.000000001
 43
0.0000000001
 40
0.1783567678412031
 40
0.1783567678412031
 40
0.1783567678412031
 40
0.1783567678412031
 40
0.2224299255224647
 40
0.2224299255224647
 40
0.333615527028449
 40
0.333615527028449
 40
0.3908647803534917
 40
0.3908647803534917
 40
0.4481146790191246
 40
0.4481146790191246
 40
0.4481146790191246
 40
0.4481146790191246
 10
25.3968853762276
 20
3.382194624035069
 30
0.0
 10
25.51551790838163
 20
3.467716830649433
 30
0.0
 10
25.62764865583581
 20
3.562446683984176
 30
0.0
 10
25.99589975393457
 20
3.926042458785307
 30
0.0
 10
26.20622993054267
 20
4.235436182398993
 30
0.0
 10
26.42605743653669
 20
4.751989011364275
 30
0.0
 10
26.48292632093394
 20
4.934625426550524
 30
0.0
 10
26.55925224913474
 20
5.308511173191287
 30
0.0
 10
26.57851565353331
 20
5.498814093540915
 30
0.0
 10
26.57858963636952
 20
5.6896
 30
0.0
  0
SPLINE
  5
11E6E
330
11E55
100
AcDbEntity
  8
0
100
AcDbSpline
210
0.0
220
0.0
230
1.0
 70
     8
 71
     3
 72
     8
 73
     4
 74
     0
 42
0.000000001
 43
0.0000000001
 40
0.0003222802090349
 40
0.0003222802090349
 40
0.0003222802090349
 40
0.0003222802090349
 40
0.0006445605179894
 40
0.0006445605179894
 40
0.0006445605179894
 40
0.0006445605179894
 10
-29.422956448794
 20
5.689599926077345
 30
0.0
 10
-29.42295618103484
 20
5.68852576060364
 30
0.0
 10
-29.42295563881788
 20
5.687451578952623
 30
0.0
 10
-29.42295482219985
 20
5.68637737772441
 30
0.0
  0
SPLINE
  5
11E6F
330
11E55
100
AcDbEntity
  8
0
100
AcDbSpline
210
0.0
220
0.0
230
1.0
 70
     8
 71
     3
 72
     8
 73
     4
 74
     0
 42
0.000000001
 43
0.0000000001
 40
0.0
 40
0.0
 40
0.0
 40
0.0
 40
0.0003222817360955
 40
0.0003222817360955
 40
0.0003222817360955
 40
0.0003222817360955
 10
-29.42295734117991
 20
5.692822335684033
 30
0.0
 10
-29.42295701397103
 20
5.691748226847279
 30
0.0
 10
-29.4229567164884
 20
5.69067408896605
 30
0.0
 10
-29.42295644874383
 20
5.689599926077361
 30
0.0
  0
ELLIPSE
  5
11E70
330
11E55
100
AcDbEntity
  8
0
100
AcDbEllipse
 10
-29.40560576237029
 20
6.949308989398902
 30
0.0
 11
0.0000000000000002
 21
1.016
 31
0.0
210
0.0
220
0.0
230
1.0
 40
0.0174524064372845
 41
0.0000000000000127
 42
1.588249619314853
  0
ELLIPSE
  5
11E71
330
11E55
100
AcDbEntity
  8
0
100
AcDbEllipse
 10
-26.56123903918939
 20
6.949308989398903
 30
0.0
 11
-0.0000000000000005
 21
1.015999999999999
 31
0.0
210
0.0
220
0.0
230
1.0
 40
0.0174524064372838
 41
0.0
 42
1.58824961931484
  0
LINE
  5
11E72
330
11E55
100
AcDbEntity
  8
0
100
AcDbLine
 10
-29.42333470669516
 20
6.931577344458622
 30
0.0
 11
-29.42295734117991
 21
5.692822335684033
 31
0.0
  0
LINE
  5
11E73
330
11E55
100
AcDbEntity
  8
0
100
AcDbLine
 10
-29.34333251941527
 20
7.965308989398901
 30
0.0
 11
-29.40560576237029
 21
7.965308989398903
 31
0.0
  0
LINE
  5
11E74
330
11E55
100
AcDbEntity
  8
0
100
AcDbLine
 10
-26.57858963636959
 20
5.689600000000005
 30
0.0
 11
-26.57896798351426
 21
6.931577344458622
 31
0.0
  0
LINE
  5
11E75
330
11E55
100
AcDbEntity
  8
0
100
AcDbLine
 10
29.40560576237022
 20
7.9653089893989
 30
0.0
 11
29.39315526944401
 21
7.965308989398899
 31
0.0
  0
LINE
  5
11E76
330
11E55
100
AcDbEntity
  8
0
100
AcDbLine
 10
26.5789679835142
 20
6.931577344458625
 30
0.0
 11
26.57858963636952
 21
5.689600000000001
 31
0.0
  0
LINE
  5
11E77
330
11E55
100
AcDbEntity
  8
0
100
AcDbLine
 10
29.42295635955042
 20
5.689600000000001
 30
0.0
 11
29.4233347066951
 21
6.931577344458624
 31
0.0
  0
LINE
  5
11E78
330
11E55
100
AcDbEntity
  8
0
100
AcDbLine
 10
-29.34333251941528
 20
57.53560269887829
 30
0.0
 11
-31.96273670744752
 21
5.689600000000014
 31
0.0
  0
ELLIPSE
  5
11E79
330
11E55
100
AcDbEntity
  8
0
100
AcDbEllipse
 10
29.40560576237022
 20
6.949308989398904
 30
0.0
 11
0.000000000000001
 21
1.015999999999999
 31
0.0
210
0.0
220
0.0
230
1.0
 40
0.0174524064372838
 41
4.694935687864745
 42
6.283185307179579
  0
ELLIPSE
  5
11E7A
330
11E55
100
AcDbEntity
  8
0
100
AcDbEllipse
 10
26.56123903918932
 20
6.949308989398903
 30
0.0
 11
0.0000000000000002
 21
1.016
 31
0.0
210
0.0
220
0.0
230
1.0
 40
0.0174524064372845
 41
4.694935687864759
 42
6.283185307179598
  0
SPLINE
  5
11E7B
330
11E55
100
AcDbEntity
  8
0
100
AcDbSpline
210
0.0
220
0.0
230
1.0
 70
     8
 71
     3
 72
    20
 73
    16
 74
     0
 42
0.000000001
 43
0.0000000001
 40
-0.1598489026684464
 40
-0.1598489026684464
 40
-0.1598489026684464
 40
-0.1598489026684464
 40
-0.1367479565069849
 40
-0.1367479565069849
 40
-0.1153474573593735
 40
-0.1153474573593735
 40
-0.0844356954966832
 40
-0.0844356954966832
 40
-0.049836685880347
 40
-0.049836685880347
 40
-0.0233359865518351
 40
-0.0233359865518351
 40
-0.0083287469220624
 40
-0.0083287469220624
 40
0.0
 40
0.0
 40
0.0
 40
0.0
 10
31.7499999999999
 20
0.0
 30
0.0
 10
31.76822676893716
 20
0.0
 30
0.0
 10
31.78627419038316
 20
0.1170646193107676
 30
0.0
 10
31.81990530374966
 20
0.5320908661826608
 30
0.0
 10
31.83532808979566
 20
0.8128805521391701
 30
0.0
 10
31.87108798478929
 20
1.65268507043916
 30
0.0
 10
31.89015092891296
 20
2.269588512060058
 30
0.0
 10
31.92755071936161
 20
3.721628510922871
 30
0.0
 10
31.94398328264996
 20
4.513114053326409
 30
0.0
 10
31.95716245576891
 20
5.183553588469389
 30
0.0
 10
31.95968751885045
 20
5.339815195820333
 30
0.0
 10
31.9617857111291
 20
5.50613052989592
 30
0.0
 10
31.96226832224762
 20
5.558546960981879
 30
0.0
 10
31.96266152402536
 20
5.634640376037901
 30
0.0
 10
31.96273670744739
 20
5.661837510259797
 30
0.0
 10
31.96273670744739
 20
5.689600000000005
 30
0.0
  0
LINE
  5
11E7C
330
11E55
100
AcDbEntity
  8
0
100
AcDbLine
 10
31.74999999999991
 20
0.0
 30
0.0
 11
26.27227002180877
 21
0.0
 31
0.0
  0
SPLINE
  5
11E7D
330
11E55
100
AcDbEntity
  8
0
100
AcDbSpline
210
0.0
220
0.0
230
1.0
 70
     8
 71
     3
 72
    22
 73
    18
 74
     0
 42
0.000000001
 43
0.0000000001
 40
-1.151047167356664
 40
-1.151047167356664
 40
-1.151047167356664
 40
-1.151047167356664
 40
-1.132990630921316
 40
-1.132990630921316
 40
-1.109750141947807
 40
-1.109750141947807
 40
-1.017289431522064
 40
-1.017289431522064
 40
-0.8803209745714525
 40
-0.8803209745714525
 40
-0.8219804066584456
 40
-0.8219804066584456
 40
-0.5620159928507338
 40
-0.5620159928507338
 40
-0.2615037979130166
 40
-0.2615037979130166
 40
0.0
 40
0.0
 40
0.0
 40
0.0
 10
-31.96273670744751
 20
5.689600000000009
 30
0.0
 10
-31.96273670744751
 20
5.669645572584631
 30
0.0
 10
-31.96269790232492
 20
5.64991971287445
 30
0.0
 10
-31.96252678296691
 20
5.604814168027225
 30
0.0
 10
-31.96237268925756
 20
5.579959597576666
 30
0.0
 10
-31.96139655551882
 20
5.458478936109446
 30
0.0
 10
-31.95971173501723
 20
5.33855473414917
 30
0.0
 10
-31.95159342903536
 20
4.887016778656294
 30
0.0
 10
-31.94365738069473
 20
4.502505459088588
 30
0.0
 10
-31.9329838109665
 20
4.012353508093281
 30
0.0
 10
-31.92971926546129
 20
3.866159395985829
 30
0.0
 10
-31.91177023311274
 20
3.084210587795849
 30
0.0
 10
-31.89590810836067
 20
2.471869528919888
 30
0.0
 10
-31.8587377926581
 20
1.319738790029003
 30
0.0
 10
-31.83713925366885
 20
0.8101561828613842
 30
0.0
 10
-31.79312979990659
 20
0.1659320256982862
 30
0.0
 10
-31.77172022500701
 20
0.0000000000000013
 30
0.0
 10
-31.75000000000582
 20
0.0
 30
0.0
  0
LINE
  5
11E7E
330
11E55
100
AcDbEntity
  8
0
100
AcDbLine
 10
-26.27227002180889
 20
0.0
 30
0.0
 11
-31.75000000000004
 21
0.0
 31
0.0
  0
CIRCLE
  5
11E7F
330
11E55
100
AcDbEntity
  8
0
100
AcDbCircle
 10
0.000000000000096
 20
33.33749999999994
 30
0.0
 40
8.724900000000001
  0
LINE
  5
11E80
330
11E55
100
AcDbEntity
  8
0
100
AcDbLine
 10
31.96273670744739
 20
5.689600000000005
 30
0.0
 11
29.39315526944401
 21
57.53560269887836
 31
0.0
  0
LINE
  5
11E81
330
11E55
100
AcDbEntity
  8
0
100
AcDbLine
 10
29.39315526944401
 20
7.965308989398893
 30
0.0
 11
24.52623999999993
 21
7.96530898939889
 31
0.0
  0
LINE
  5
11E82
330
11E55
100
AcDbEntity
  8
0
100
AcDbLine
 10
24.52623999999979
 20
57.53560269887831
 30
0.0
 11
29.39315526944401
 21
57.53560269887836
 31
0.0
  0
LINE
  5
11E83
330
11E55
100
AcDbEntity
  8
0
100
AcDbLine
 10
-29.34333251941528
 20
57.53560269887829
 30
0.0
 11
-24.52623999999985
 21
57.53560269887828
 31
0.0
  0
LINE
  5
11E84
330
11E55
100
AcDbEntity
  8
0
100
AcDbLine
 10
-24.52623999999999
 20
7.965308989398941
 30
0.0
 11
-29.34333251941527
 21
7.965308989398902
 31
0.0
  0
LINE
  5
11E85
330
11E55
100
AcDbEntity
  8
0
100
AcDbLine
 10
23.73248999999996
 20
0.0
 30
0.0
 11
-23.73249000000001
 21
0.0
 31
0.0
  0
LINE
  5
11E86
330
11E55
100
AcDbEntity
  8
0
100
AcDbLine
 10
24.52623999999977
 20
63.38522269887845
 30
0.0
 11
-24.52623999999984
 21
63.38522269887842
 31
0.0
  0
ENDBLK
  5
11E57
330
11E55
100
AcDbEntity
  8
0
100
AcDbBlockEnd
  0
BLOCK
  5
11E88
330
11E87
100
AcDbEntity
  8
0
100
AcDbBlockBegin
  2
HTT4-ISO
 70
     0
 10
0.0
 20
0.0
 30
0.0
  3
HTT4-ISO
  1

  0
SPLINE
  5
11E8A
330
11E87
100
AcDbEntity
  8
0
100
AcDbSpline
210
0.0
220
0.0
230
1.0
 70
     8
 71
     3
 72
    16
 73
    12
 74
     0
 42
0.000000001
 43
0.0000000001
 40
-0.1969447702847755
 40
-0.1969447702847755
 40
-0.1969447702847755
 40
-0.1969447702847755
 40
-0.1738095768924023
 40
-0.1738095768924023
 40
-0.1457909357767882
 40
-0.1457909357767882
 40
-0.1012418803318874
 40
-0.1012418803318874
 40
-0.0538491035528688
 40
-0.0538491035528688
 40
-0.0193284650333396
 40
-0.0193284650333396
 40
-0.0193284650333396
 40
-0.0193284650333396
 10
2.988926859302978
 20
-96.74727670816544
 30
0.0
 10
2.988049781899584
 20
-96.69322444369591
 30
0.0
 10
2.981394178984091
 20
-96.63729126606682
 30
0.0
 10
2.953735837900037
 20
-96.51170615582067
 30
0.0
 10
2.930120554572961
 20
-96.44217482515594
 30
0.0
 10
2.847058792267962
 20
-96.26536582803195
 30
0.0
 10
2.775951400898892
 20
-96.16264662623976
 30
0.0
 10
2.590768175797195
 20
-95.97676929768473
 30
0.0
 10
2.478273013791569
 20
-95.89935492898122
 30
0.0
 10
2.261800056113663
 20
-95.80095871040013
 30
0.0
 10
2.162611355251877
 20
-95.76976424673034
 30
0.0
 10
2.056035947823739
 20
-95.75008588634361
 30
0.0
  0
SPLINE
  5
11E8B
330
11E87
100
AcDbEntity
  8
0
100
AcDbSpline
210
0.0
220
0.0
230
1.0
 70
     8
 71
     3
 72
     8
 73
     4
 74
     0
 42
0.000000001
 43
0.0000000001
 40
0.5796662686722268
 40
0.5796662686722268
 40
0.5796662686722268
 40
0.5796662686722268
 40
0.5820993548044302
 40
0.5820993548044302
 40
0.5820993548044302
 40
0.5820993548044302
 10
2.056035947825014
 20
-95.75008588634274
 30
0.0
 10
2.06091132530163
 20
-95.74670107260255
 30
0.0
 10
2.065762803405823
 20
-95.74333202742677
 30
0.0
 10
2.07059019847787
 20
-95.73997882370088
 30
0.0
  0
LINE
  5
11E8C
330
11E87
100
AcDbEntity
  8
0
100
AcDbLine
 10
2.98892687664021
 20
-96.74727669894705
 30
0.0
 11
3.055507123044307
 21
-100.8504653324169
 31
0.0
  0
LINE
  5
11E8D
330
11E87
100
AcDbEntity
  8
0
100
AcDbLine
 10
37.73003462144109
 20
-120.2096291930576
 30
0.0
 11
37.74084836506176
 21
-120.8760564354297
 31
0.0
  0
LINE
  5
11E8E
330
11E87
100
AcDbEntity
  8
0
100
AcDbLine
 10
39.7443973802574
 20
-118.7056578582834
 30
0.0
 11
39.75242573618126
 21
-119.7146716987181
 31
0.0
  0
LINE
  5
11E8F
330
11E87
100
AcDbEntity
  8
0
100
AcDbLine
 10
37.57104399594489
 20
-120.7780198372105
 30
0.0
 11
37.74084836506176
 21
-120.8760564354297
 31
0.0
  0
SPLINE
  5
11E90
330
11E87
100
AcDbEntity
  8
0
100
AcDbSpline
210
0.0
220
0.0
230
1.0
 70
     8
 71
     3
 72
    10
 73
     6
 74
     0
 42
0.000000001
 43
0.0000000001
 40
0.2555763673393018
 40
0.2555763673393018
 40
0.2555763673393018
 40
0.2555763673393018
 40
0.3279364488154204
 40
0.3279364488154204
 40
0.3534231846692982
 40
0.3534231846692982
 40
0.3534231846692982
 40
0.3534231846692982
 10
2.975658404910304
 20
-95.92957236056838
 30
0.0
 10
2.76491276828495
 20
-95.86305067788893
 30
0.0
 10
2.539752501910943
 20
-95.81232609674103
 30
0.0
 10
2.223150361705816
 20
-95.76708283265523
 30
0.0
 10
2.139869261372573
 20
-95.75748287953803
 30
0.0
 10
2.056035947823735
 20
-95.75008588634359
 30
0.0
  0
ELLIPSE
  5
11E91
330
11E87
100
AcDbEntity
  8
0
100
AcDbEllipse
 10
1.633297850168689
 20
-97.34711480865691
 30
0.0
 11
-2.798251531818521
 21
-0.0000000000001675
 31
0.0
210
0.0
220
0.0
230
1.0
 40
0.5773502691896259
 41
3.924555576824827
 42
4.212060202219102
  0
LINE
  5
11E92
330
11E87
100
AcDbEntity
  8
0
100
AcDbLine
 10
3.616773130611123
 20
-101.1745124129726
 30
0.0
 11
3.055507123044307
 21
-100.8504653324169
 31
0.0
  0
LINE
  5
11E93
330
11E87
100
AcDbEntity
  8
0
100
AcDbLine
 10
3.616773130611123
 20
-101.1745124129726
 30
0.0
 11
3.616773130611112
 21
-96.20751876221493
 31
0.0
  0
ELLIPSE
  5
11E94
330
11E87
100
AcDbEntity
  8
0
100
AcDbEllipse
 10
-35.61673033386805
 20
-124.0841869132287
 30
0.0
 11
-2.924809999999687
 21
-5.065919522485718
 31
0.0
210
0.0
220
0.0
230
1.0
 40
0.5773502691896249
 41
3.926990816987
 42
6.283185307179203
  0
LINE
  5
11E95
330
11E87
100
AcDbEntity
  8
0
100
AcDbLine
 10
-5.247913647327897
 20
-101.7745476945577
 30
0.0
 11
-35.61673033386806
 21
-119.3079921835022
 31
0.0
  0
ELLIPSE
  5
11E96
330
11E87
100
AcDbEntity
  8
0
100
AcDbEllipse
 10
0.1459041398179073
 20
-102.5303253980176
 30
0.0
 11
-2.057400000000208
 21
-3.563521331492079
 31
0.0
210
0.0
220
0.0
230
1.0
 40
0.5773502691896257
 41
1.678366459305348
 42
2.356194490192587
  0
SPLINE
  5
11E97
330
11E87
100
AcDbEntity
  8
0
100
AcDbSpline
210
0.0
220
0.0
230
1.0
 70
     8
 71
     3
 72
    16
 73
    12
 74
     0
 42
0.000000001
 43
0.0000000001
 40
0.0
 40
0.0
 40
0.0
 40
0.0
 40
0.1112442988749755
 40
0.1112442988749755
 40
0.2224299255202947
 40
0.2224299255202947
 40
0.3336155270249801
 40
0.3336155270249801
 40
0.3908647803495944
 40
0.3908647803495944
 40
0.4481146790159932
 40
0.4481146790159932
 40
0.4481146790159932
 40
0.4481146790159932
 10
-0.407300593317852
 20
-96.16646552442336
 30
0.0
 10
-0.1450583143594208
 20
-96.02190185970421
 30
0.0
 10
0.1659067567482575
 20
-95.90727132248076
 30
0.0
 10
0.8500570874719937
 20
-95.75185323559322
 30
0.0
 10
1.216665361690671
 20
-95.7125156884774
 30
0.0
 10
1.957852910506883
 20
-95.71598507682233
 30
0.0
 10
2.325342524090636
 20
-95.75876075491482
 30
0.0
 10
2.846010076565852
 20
-95.88285172126779
 30
0.0
 10
3.015352346382387
 20
-95.93509102930978
 30
0.0
 10
3.333668014005581
 20
-96.05825603347975
 30
0.0
 10
3.481835355474915
 20
-96.12887036877397
 30
0.0
 10
3.616773130611112
 20
-96.20751876221497
 30
0.0
  0
LINE
  5
11E98
330
11E87
100
AcDbEntity
  8
0
100
AcDbLine
 10
1.820877454467955
 20
23.63277895149254
 30
0.0
 11
3.616773130611112
 21
-96.20751876221493
 31
0.0
  0
LINE
  5
11E99
330
11E87
100
AcDbEntity
  8
0
100
AcDbLine
 10
-0.4073005933178609
 20
-96.16646552442334
 30
0.0
 11
-2.201708006524492
 21
23.57452025498917
 31
0.0
  0
ELLIPSE
  5
11E9A
330
11E87
100
AcDbEntity
  8
0
100
AcDbEllipse
 10
34.83124538183535
 20
-122.5559165010304
 30
0.0
 11
-2.057400000000223
 21
-3.563521331492081
 31
0.0
210
0.0
220
0.0
230
1.0
 40
0.5773502691896272
 41
0.7853981633976961
 42
2.356194490192583
  0
LINE
  5
11E9B
330
11E87
100
AcDbEntity
  8
0
100
AcDbLine
 10
34.83124538183537
 20
-125.9156366322318
 30
0.0
 11
-0.9313890918508116
 21
-146.5632032725446
 31
0.0
  0
ELLIPSE
  5
11E9C
330
11E87
100
AcDbEntity
  8
0
100
AcDbEllipse
 10
-0.9313890918508116
 20
-144.1097780162413
 30
0.0
 11
-1.502410000000009
 21
-2.602250453799558
 31
0.0
210
0.0
220
0.0
230
0.9999999999999998
 40
0.5773502691896275
 41
3.926990816987242
 42
7.068583470577035
  0
LINE
  5
11E9D
330
11E87
100
AcDbEntity
  8
0
100
AcDbLine
 10
-0.931389091850816
 20
-141.6563527599381
 30
0.0
 11
0.4495239604532353
 21
-140.8590822374629
 31
0.0
  0
LINE
  5
11E9E
330
11E87
100
AcDbEntity
  8
0
100
AcDbLine
 10
1.120341863667477
 20
-138.1490158670417
 30
0.0
 11
-0.9313890918508249
 21
-139.3335832865149
 31
0.0
  0
ELLIPSE
  5
11E9F
330
11E87
100
AcDbEntity
  8
0
100
AcDbEllipse
 10
-0.9313890918508116
 20
-144.1097780162413
 30
0.0
 11
-2.924809999999713
 21
-5.065919522485703
 31
0.0
210
0.0
220
0.0
230
1.0
 40
0.5773502691896275
 41
3.926990816987004
 42
7.068583470576797
  0
LINE
  5
11EA0
330
11E87
100
AcDbEntity
  8
0
100
AcDbLine
 10
-0.9313890918508116
 20
-148.8859727459678
 30
0.0
 11
34.83124538183537
 21
-128.238406105655
 31
0.0
  0
ELLIPSE
  5
11EA1
330
11E87
100
AcDbEntity
  8
0
100
AcDbEllipse
 10
34.83124538183535
 20
-122.5559165010304
 30
0.0
 11
3.479799999999654
 21
6.027190400178373
 31
0.0
210
0.0
220
0.0
230
1.0
 40
0.5773502691896283
 41
3.926990816987004
 42
5.497787143781899
  0
ELLIPSE
  5
11EA2
330
11E87
100
AcDbEntity
  8
0
100
AcDbEllipse
 10
36.9639006625186
 20
1.020175568764045
 30
0.0
 11
-5.69003334281931
 21
0.0007505717630629
 31
0.0
210
0.0
220
0.0
230
1.0
 40
0.5773502557949274
 41
2.356346806631631
 42
3.126302954096367
  0
ELLIPSE
  5
11EA3
330
11E87
100
AcDbEntity
  8
0
100
AcDbEllipse
 10
45.79943320590756
 20
-1.895791411117766
 30
0.0
 11
-4.826000000000028
 21
8.35887719732745
 31
0.0
210
0.0
220
0.0
230
0.9999999999999998
 40
0.5773502691896258
 41
5.944856637418201
 42
7.051130178057087
  0
SPLINE
  5
11EA4
330
11E87
100
AcDbEntity
  8
0
100
AcDbSpline
210
0.0
220
0.0
230
1.0
 70
     8
 71
     3
 72
     8
 73
     4
 74
     0
 42
0.000000001
 43
0.0000000001
 40
-0.1208672268700966
 40
-0.1208672268700966
 40
-0.1208672268700966
 40
-0.1208672268700966
 40
0.0
 40
0.0
 40
0.0
 40
0.0
 10
42.72318001595156
 20
5.851574069554139
 30
0.0
 10
42.81260777754163
 20
6.220233550823301
 30
0.0
 10
42.85591676399541
 20
6.581072808419854
 30
0.0
 10
42.84881804672586
 20
6.914028040074704
 30
0.0
  0
ELLIPSE
  5
11EA5
330
11E87
100
AcDbEntity
  8
0
100
AcDbEllipse
 10
36.9639006625186
 20
1.020175568764045
 30
0.0
 11
2.845016671409655
 21
-0.0003752858813617
 31
0.0
210
0.0
220
0.0
230
1.0
 40
0.5773502557949274
 41
0.3572397492295902
 42
0.7855504798364946
  0
SPLINE
  5
11EA6
330
11E87
100
AcDbEntity
  8
0
100
AcDbSpline
210
0.0
220
0.0
230
1.0
 70
     8
 71
     3
 72
    20
 73
    16
 74
     0
 42
0.000000001
 43
0.0000000001
 40
-0.1598489026684464
 40
-0.1598489026684464
 40
-0.1598489026684464
 40
-0.1598489026684464
 40
-0.1367479565069849
 40
-0.1367479565069849
 40
-0.1153474573593735
 40
-0.1153474573593735
 40
-0.0844356954966832
 40
-0.0844356954966832
 40
-0.049836685880347
 40
-0.049836685880347
 40
-0.0233359865518351
 40
-0.0233359865518351
 40
-0.0083287469220624
 40
-0.0083287469220624
 40
0.0
 40
0.0
 40
0.0
 40
0.0
 10
44.86039541784535
 20
8.075412776786308
 30
0.0
 10
44.87328368976001
 20
7.47090672336407
 30
0.0
 10
44.80326795769574
 20
6.824557448953569
 30
0.0
 10
44.53358087248253
 20
5.539719658404234
 30
0.0
 10
44.34593813805336
 20
4.913578136127014
 30
0.0
 10
43.77739273253687
 20
3.384722517307707
 30
0.0
 10
43.35465566268862
 20
2.500634238260612
 30
0.0
 10
42.35435397837981
 20
0.6674460252592774
 30
0.0
 10
41.80630876106863
 20
-0.200676315107895
 30
0.0
 10
41.34155550207632
 20
-0.9114804208502214
 30
0.0
 10
41.23284734910725
 20
-1.059019786298698
 30
0.0
 10
41.11672829455556
 20
-1.196506040890294
 30
0.0
 10
41.08000553828365
 20
-1.233911161118825
 30
0.0
 10
41.02647740413731
 20
-1.278017033925209
 30
0.0
 10
41.00729928880773
 20
-1.291613738614021
 30
0.0
 10
40.9876682440498
 20
-1.302947727589494
 30
0.0
  0
SPLINE
  5
11EA7
330
11E87
100
AcDbEntity
  8
0
100
AcDbSpline
210
0.0
220
0.0
230
1.0
 70
     8
 71
     3
 72
     8
 73
     4
 74
     0
 42
0.000000001
 43
0.0000000001
 40
0.1900230410225955
 40
0.1900230410225955
 40
0.1900230410225955
 40
0.1900230410225955
 40
0.2940671258935023
 40
0.2940671258935023
 40
0.2940671258935023
 40
0.2940671258935023
 10
42.68127084969326
 20
1.272827019513247
 30
0.0
 10
42.67128477426865
 20
1.218460497838655
 30
0.0
 10
42.65716892990504
 20
1.115972398449933
 30
0.0
 10
42.65326229935357
 20
0.9691982046259717
 30
0.0
  0
LINE
  5
11EA8
330
11E87
100
AcDbEntity
  8
0
100
AcDbLine
 10
39.19177233732752
 20
-119.0695388575013
 30
0.0
 11
40.9876682440498
 21
-1.302947727589476
 31
0.0
  0
SPLINE
  5
11EA9
330
11E87
100
AcDbEntity
  8
0
100
AcDbSpline
210
0.0
220
0.0
230
1.0
 70
     8
 71
     3
 72
    12
 73
     8
 74
     0
 42
0.000000001
 43
0.0000000001
 40
0.0
 40
0.0
 40
0.0
 40
0.0
 40
0.1109419577493359
 40
0.1109419577493359
 40
0.3332420225662498
 40
0.3332420225662498
 40
0.4429625773600038
 40
0.4429625773600038
 40
0.4429625773600038
 40
0.4429625773600038
 10
39.19177233732752
 20
-119.0695388575014
 30
0.0
 10
39.45319820614797
 20
-118.92189980745
 30
0.0
 10
39.6885152349935
 20
-118.7593832954163
 30
0.0
 10
40.30688660827869
 20
-118.2336538325187
 30
0.0
 10
40.59523692547641
 20
-117.8377557289694
 30
0.0
 10
40.81621661681662
 20
-117.2129878815135
 30
0.0
 10
40.85435084759894
 20
-117.003015949329
 30
0.0
 10
40.85756071252448
 20
-116.7925237388798
 30
0.0
  0
LINE
  5
11EAA
330
11E87
100
AcDbEntity
  8
0
100
AcDbLine
 10
38.93856279853516
 20
-0.2391709755296922
 30
0.0
 11
38.9754780336381
 21
2.181560305475649
 31
0.0
  0
LINE
  5
11EAB
330
11E87
100
AcDbEntity
  8
0
100
AcDbLine
 10
42.65352816465
 20
0.9785994314188606
 30
0.0
 11
40.85756314552495
 21
-116.7925237718988
 31
0.0
  0
LINE
  5
11EAC
330
11E87
100
AcDbEntity
  8
0
100
AcDbLine
 10
-39.0229291199496
 20
-119.9689128266651
 30
0.0
 11
-4.214467498182754
 21
24.79451751113448
 31
0.0
  0
LINE
  5
11EAD
330
11E87
100
AcDbEntity
  8
0
100
AcDbLine
 10
-2.202583707417149
 20
23.63295586295772
 30
0.0
 11
-36.78085946393755
 21
-120.1731642716379
 31
0.0
  0
LINE
  5
11EAE
330
11E87
100
AcDbEntity
  8
0
100
AcDbLine
 10
-37.45918968562285
 20
-120.8717382100163
 30
0.0
 11
-39.0229291199496
 21
-119.9689128266651
 31
0.0
  0
LINE
  5
11EAF
330
11E87
100
AcDbEntity
  8
0
100
AcDbLine
 10
-0.4073005933178609
 20
-96.16646552442334
 30
0.0
 11
-1.285778727496249
 21
-96.65564822626627
 31
0.0
  0
LINE
  5
11EB0
330
11E87
100
AcDbEntity
  8
0
100
AcDbLine
 10
37.57033435399262
 20
-120.8031196974205
 30
0.0
 11
37.56153052601538
 21
-121.3804342321287
 31
0.0
  0
LINE
  5
11EB1
330
11E87
100
AcDbEntity
  8
0
100
AcDbLine
 10
-2.004201126805251
 20
-97.91421306761717
 30
0.0
 11
-1.960167294425283
 21
-100.8525950972592
 31
0.0
  0
LINE
  5
11EB2
330
11E87
100
AcDbEntity
  8
0
100
AcDbLine
 10
39.19177233732752
 20
-119.0695388575013
 30
0.0
 11
38.31382926681241
 21
-119.5590304784943
 31
0.0
  0
LINE
  5
11EB3
330
11E87
100
AcDbEntity
  8
0
100
AcDbLine
 10
-3.047808219683809
 20
-145.1149238864033
 30
0.0
 11
-1.179057713787998
 21
-144.0360002787761
 31
0.0
  0
LINE
  5
11EB4
330
11E87
100
AcDbEntity
  8
0
100
AcDbLine
 10
-2.470237541854061
 20
-143.3065206044066
 30
0.0
 11
-1.512502297651558
 21
-143.8594693054593
 31
0.0
  0
LINE
  5
11EB5
330
11E87
100
AcDbEntity
  8
0
100
AcDbLine
 10
-0.6695495651862693
 20
-104.4178674298303
 30
0.0
 11
1.814613076835689
 21
-102.9836354597481
 31
0.0
  0
LINE
  5
11EB6
330
11E87
100
AcDbEntity
  8
0
100
AcDbLine
 10
1.814613076835689
 20
-102.9836354597481
 30
0.0
 11
9.540372460302354
 21
-107.4441047194869
 31
0.0
  0
LINE
  5
11EB7
330
11E87
100
AcDbEntity
  8
0
100
AcDbLine
 10
-5.247913647327897
 20
-101.7745476945577
 30
0.0
 11
8.861285522022711
 21
-109.9204976330324
 31
0.0
  0
ELLIPSE
  5
11EB8
330
11E87
100
AcDbEntity
  8
0
100
AcDbEllipse
 10
-1.285780637119722
 20
-97.49943280450587
 30
0.0
 11
-0.4945246379342752
 21
-0.887525426382801
 31
0.0
210
0.0
220
0.0
230
1.0
 40
0.5873384875017421
 41
3.900657232725079
 42
5.488906852039942
  0
ELLIPSE
  5
11EB9
330
11E87
100
AcDbEntity
  8
0
100
AcDbEllipse
 10
38.28875484367815
 20
-120.3883394343092
 30
0.0
 11
-0.5211271689019298
 21
-0.8721711264610046
 31
0.0
210
0.0
220
0.0
230
0.9999999999999996
 40
0.5671861843925963
 41
3.918113183330923
 42
5.50636280264578
  0
ELLIPSE
  5
11EBA
330
11E87
100
AcDbEntity
  8
0
100
AcDbEllipse
 10
22.40975511517245
 20
-32.42831312957941
 30
0.0
 11
1.1747500000001
 21
-2.034726686191433
 31
0.0
210
0.0
220
0.0
230
1.0
 40
0.5773502691896259
 41
4.169408564423694
 42
5.255369396345459
  0
ELLIPSE
  5
11EBB
330
11E87
100
AcDbEntity
  8
0
100
AcDbEllipse
 10
20.39817774405297
 20
-33.589697866291
 30
0.0
 11
1.174749999999999
 21
-2.034726686191538
 31
0.0
210
0.0
220
0.0
230
1.0
 40
0.5773502691896258
 41
0.0
 42
6.283185307179586
  0
ELLIPSE
  5
11EBC
330
11E87
100
AcDbEntity
  8
0
100
AcDbEllipse
 10
22.40975511517245
 20
-14.28167661846069
 30
0.0
 11
1.1747500000001
 21
-2.034726686191433
 31
0.0
210
0.0
220
0.0
230
1.0
 40
0.5773502691896259
 41
4.169408564423696
 42
5.255369396345459
  0
ELLIPSE
  5
11EBD
330
11E87
100
AcDbEntity
  8
0
100
AcDbEllipse
 10
20.39817774405297
 20
-15.44306135517228
 30
0.0
 11
1.174749999999999
 21
-2.034726686191538
 31
0.0
210
0.0
220
0.0
230
1.0
 40
0.5773502691896258
 41
0.0
 42
6.283185307179586
  0
ELLIPSE
  5
11EBE
330
11E87
100
AcDbEntity
  8
0
100
AcDbEllipse
 10
28.02780334451338
 20
0.6213782351277431
 30
0.0
 11
1.1747500000001
 21
-2.034726686191433
 31
0.0
210
0.0
220
0.0
230
1.0
 40
0.5773502691896259
 41
4.169408564423694
 42
5.255369396345459
  0
ELLIPSE
  5
11EBF
330
11E87
100
AcDbEntity
  8
0
100
AcDbEllipse
 10
26.0162259733939
 20
-0.5400065015838607
 30
0.0
 11
1.174749999999999
 21
-2.034726686191538
 31
0.0
210
0.0
220
0.0
230
1.0
 40
0.5773502691896258
 41
0.0
 42
6.283185307179586
  0
ELLIPSE
  5
11EC0
330
11E87
100
AcDbEntity
  8
0
100
AcDbEllipse
 10
11.18084286138765
 20
10.34797540508735
 30
0.0
 11
1.1747500000001
 21
-2.034726686191431
 31
0.0
210
0.0
220
0.0
230
0.9999999999999998
 40
0.5773502691896258
 41
4.169408564423694
 42
5.255369396345459
  0
ELLIPSE
  5
11EC1
330
11E87
100
AcDbEntity
  8
0
100
AcDbEllipse
 10
9.169265490268168
 20
9.186590668375771
 30
0.0
 11
1.174749999999999
 21
-2.034726686191538
 31
0.0
210
0.0
220
0.0
230
1.0
 40
0.5773502691896258
 41
0.0
 42
6.283185307179586
  0
ELLIPSE
  5
11EC2
330
11E87
100
AcDbEntity
  8
0
100
AcDbEllipse
 10
33.65303577875101
 20
15.52028528608513
 30
0.0
 11
1.1747500000001
 21
-2.034726686191431
 31
0.0
210
0.0
220
0.0
230
0.9999999999999998
 40
0.5773502691896258
 41
4.169408564423696
 42
5.255369396345459
  0
ELLIPSE
  5
11EC3
330
11E87
100
AcDbEntity
  8
0
100
AcDbEllipse
 10
31.64145840763153
 20
14.35890054937353
 30
0.0
 11
1.174749999999999
 21
-2.034726686191538
 31
0.0
210
0.0
220
0.0
230
1.0
 40
0.5773502691896258
 41
0.0
 42
6.283185307179586
  0
ELLIPSE
  5
11EC4
330
11E87
100
AcDbEntity
  8
0
100
AcDbEllipse
 10
16.80607529562528
 20
25.24688245604477
 30
0.0
 11
1.1747500000001
 21
-2.034726686191433
 31
0.0
210
0.0
220
0.0
230
1.0
 40
0.5773502691896259
 41
4.169408564423694
 42
5.255369396345457
  0
ELLIPSE
  5
11EC5
330
11E87
100
AcDbEntity
  8
0
100
AcDbEllipse
 10
14.7944979245058
 20
24.08549771933316
 30
0.0
 11
1.174749999999999
 21
-2.034726686191538
 31
0.0
210
0.0
220
0.0
230
1.0
 40
0.5773502691896258
 41
0.0
 42
6.283185307179586
  0
ELLIPSE
  5
11EC6
330
11E87
100
AcDbEntity
  8
0
100
AcDbEllipse
 10
28.03139544696172
 20
36.91257735604966
 30
0.0
 11
1.174750000000101
 21
-2.034726686191435
 31
0.0
210
0.0
220
0.0
230
1.0
 40
0.5773502691896258
 41
4.169408564423694
 42
5.255369396345457
  0
ELLIPSE
  5
11EC7
330
11E87
100
AcDbEntity
  8
0
100
AcDbEllipse
 10
26.01981807584224
 20
35.75119261933806
 30
0.0
 11
1.174749999999999
 21
-2.034726686191538
 31
0.0
210
0.0
220
0.0
230
1.0
 40
0.5773502691896258
 41
0.0
 42
6.283185307179586
  0
ELLIPSE
  5
11EC8
330
11E87
100
AcDbEntity
  8
0
100
AcDbEllipse
 10
6.694306903301416
 20
49.23155117045482
 30
0.0
 11
1.174750000000111
 21
-2.03472668619145
 31
0.0
210
0.0
220
0.0
230
1.0
 40
0.5773502691896259
 41
4.169408564423708
 42
5.255369396345457
  0
ELLIPSE
  5
11EC9
330
11E87
100
AcDbEntity
  8
0
100
AcDbEllipse
 10
4.682729532181926
 20
48.07016643374321
 30
0.0
 11
1.174749999999999
 21
-2.034726686191538
 31
0.0
210
0.0
220
0.0
230
1.0
 40
0.5773502691896258
 41
0.0
 42
6.283185307179586
  0
ELLIPSE
  5
11ECA
330
11E87
100
AcDbEntity
  8
0
100
AcDbEllipse
 10
38.14316383928557
 20
49.22118166387704
 30
0.0
 11
1.174750000000101
 21
-2.034726686191435
 31
0.0
210
0.0
220
0.0
230
1.0
 40
0.5773502691896258
 41
4.169408564423694
 42
5.255369396345457
  0
ELLIPSE
  5
11ECB
330
11E87
100
AcDbEntity
  8
0
100
AcDbEllipse
 10
36.13158646816609
 20
48.05979692716547
 30
0.0
 11
1.174749999999999
 21
-2.034726686191538
 31
0.0
210
0.0
220
0.0
230
1.0
 40
0.5773502691896258
 41
0.0
 42
6.283185307179586
  0
ELLIPSE
  5
11ECC
330
11E87
100
AcDbEntity
  8
0
100
AcDbEllipse
 10
16.80607529562526
 20
61.54015547828219
 30
0.0
 11
1.1747500000001
 21
-2.034726686191433
 31
0.0
210
0.0
220
0.0
230
1.0
 40
0.5773502691896259
 41
4.169408564423694
 42
5.255369396345457
  0
ELLIPSE
  5
11ECD
330
11E87
100
AcDbEntity
  8
0
100
AcDbEllipse
 10
14.79449792450578
 20
60.37877074157062
 30
0.0
 11
1.174749999999999
 21
-2.034726686191538
 31
0.0
210
0.0
220
0.0
230
1.0
 40
0.5773502691896258
 41
0.0
 42
6.283185307179586
  0
ELLIPSE
  5
11ECE
330
11E87
100
AcDbEntity
  8
0
100
AcDbEllipse
 10
30.27645947722899
 20
71.90966205606432
 30
0.0
 11
1.174750000000101
 21
-2.034726686191435
 31
0.0
210
0.0
220
0.0
230
1.0
 40
0.5773502691896258
 41
4.169408564423694
 42
5.255369396345457
  0
ELLIPSE
  5
11ECF
330
11E87
100
AcDbEntity
  8
0
100
AcDbEllipse
 10
28.2648821061095
 20
70.74827731935275
 30
0.0
 11
1.174749999999999
 21
-2.034726686191538
 31
0.0
210
0.0
220
0.0
230
1.0
 40
0.5773502691896258
 41
0.0
 42
6.283185307179586
  0
ELLIPSE
  5
11ED0
330
11E87
100
AcDbEntity
  8
0
100
AcDbEllipse
 10
8.93937093356868
 20
84.22863587046951
 30
0.0
 11
1.1747500000001
 21
-2.034726686191433
 31
0.0
210
0.0
220
0.0
230
1.0
 40
0.5773502691896258
 41
4.169408564423688
 42
5.255369396345457
  0
ELLIPSE
  5
11ED1
330
11E87
100
AcDbEntity
  8
0
100
AcDbEllipse
 10
6.9277935624492
 20
83.0672511337579
 30
0.0
 11
1.174749999999999
 21
-2.034726686191538
 31
0.0
210
0.0
220
0.0
230
1.0
 40
0.5773502691896258
 41
0.0
 42
6.283185307179586
  0
ELLIPSE
  5
11ED2
330
11E87
100
AcDbEntity
  8
0
100
AcDbEllipse
 10
35.8891195528972
 20
86.81582776162612
 30
0.0
 11
1.1747500000001
 21
-2.034726686191431
 31
0.0
210
0.0
220
0.0
230
0.9999999999999998
 40
0.5773502691896258
 41
4.169408564423688
 42
5.255369396345454
  0
ELLIPSE
  5
11ED3
330
11E87
100
AcDbEntity
  8
0
100
AcDbEllipse
 10
33.87754218177772
 20
85.65444302491455
 30
0.0
 11
1.174749999999999
 21
-2.034726686191538
 31
0.0
210
0.0
220
0.0
230
1.0
 40
0.5773502691896258
 41
0.0
 42
6.283185307179586
  0
ELLIPSE
  5
11ED4
330
11E87
100
AcDbEntity
  8
0
100
AcDbEllipse
 10
14.55203100923689
 20
99.13480157603125
 30
0.0
 11
1.1747500000001
 21
-2.034726686191431
 31
0.0
210
0.0
220
0.0
230
0.9999999999999998
 40
0.5773502691896258
 41
4.169408564423688
 42
5.255369396345456
  0
ELLIPSE
  5
11ED5
330
11E87
100
AcDbEntity
  8
0
100
AcDbEllipse
 10
12.54045363811741
 20
97.97341683931968
 30
0.0
 11
1.174749999999999
 21
-2.034726686191538
 31
0.0
210
0.0
220
0.0
230
1.0
 40
0.5773502691896258
 41
0.0
 42
6.283185307179586
  0
ELLIPSE
  5
11ED6
330
11E87
100
AcDbEntity
  8
0
100
AcDbEllipse
 10
28.02780334451327
 20
109.5011973018401
 30
0.0
 11
1.174750000000101
 21
-2.034726686191435
 31
0.0
210
0.0
220
0.0
230
1.0
 40
0.5773502691896258
 41
4.16940856442369
 42
5.255369396345457
  0
ELLIPSE
  5
11ED7
330
11E87
100
AcDbEntity
  8
0
100
AcDbEllipse
 10
26.01622597339379
 20
108.3398125651284
 30
0.0
 11
1.174749999999999
 21
-2.034726686191538
 31
0.0
210
0.0
220
0.0
230
1.0
 40
0.5773502691896258
 41
0.0
 42
6.283185307179586
  0
ELLIPSE
  5
11ED8
330
11E87
100
AcDbEntity
  8
0
100
AcDbEllipse
 10
6.690714800852964
 20
121.8201711162452
 30
0.0
 11
1.174750000000101
 21
-2.034726686191435
 31
0.0
210
0.0
220
0.0
230
1.0
 40
0.5773502691896258
 41
4.169408564423688
 42
5.255369396345456
  0
ELLIPSE
  5
11ED9
330
11E87
100
AcDbEntity
  8
0
100
AcDbEllipse
 10
4.679137429733479
 20
120.6587863795336
 30
0.0
 11
1.174749999999999
 21
-2.034726686191538
 31
0.0
210
0.0
220
0.0
230
1.0
 40
0.5773502691896258
 41
0.0
 42
6.283185307179586
  0
ELLIPSE
  5
11EDA
330
11E87
100
AcDbEntity
  8
0
100
AcDbEllipse
 10
38.13418358316448
 20
121.8129124616408
 30
0.0
 11
1.174750000000111
 21
-2.03472668619145
 31
0.0
210
0.0
220
0.0
230
1.0
 40
0.5773502691896259
 41
4.169408564423706
 42
5.255369396345461
  0
ELLIPSE
  5
11EDB
330
11E87
100
AcDbEntity
  8
0
100
AcDbEllipse
 10
36.12260621204498
 20
120.6515277249292
 30
0.0
 11
1.174749999999999
 21
-2.034726686191538
 31
0.0
210
0.0
220
0.0
230
1.0
 40
0.5773502691896258
 41
0.0
 42
6.283185307179586
  0
ELLIPSE
  5
11EDC
330
11E87
100
AcDbEntity
  8
0
100
AcDbEllipse
 10
16.79709503950417
 20
134.1318862760459
 30
0.0
 11
1.174750000000101
 21
-2.034726686191435
 31
0.0
210
0.0
220
0.0
230
1.0
 40
0.5773502691896258
 41
4.169408564423688
 42
5.255369396345456
  0
ELLIPSE
  5
11EDD
330
11E87
100
AcDbEntity
  8
0
100
AcDbEllipse
 10
14.78551766838468
 20
132.9705015393344
 30
0.0
 11
1.174749999999999
 21
-2.034726686191538
 31
0.0
210
0.0
220
0.0
230
1.0
 40
0.5773502691896258
 41
0.0
 42
6.283185307179586
  0
LINE
  5
11EDE
330
11E87
100
AcDbEntity
  8
0
100
AcDbLine
 10
44.86039541784529
 20
118.5776264093728
 30
0.0
 11
36.44140530434295
 21
133.1597450343789
 31
0.0
  0
LINE
  5
11EDF
330
11E87
100
AcDbEntity
  8
0
100
AcDbLine
 10
36.44140530434295
 20
133.1597450343789
 30
0.0
 11
34.42982793322347
 21
131.9983602976673
 31
0.0
  0
LINE
  5
11EE0
330
11E87
100
AcDbEntity
  8
0
100
AcDbLine
 10
34.42982793322347
 20
131.9983602976673
 30
0.0
 11
42.84881804672579
 21
117.4162416726612
 31
0.0
  0
LINE
  5
11EE1
330
11E87
100
AcDbEntity
  8
0
100
AcDbLine
 10
42.84881804672579
 20
117.4162416726612
 30
0.0
 11
44.86039541784529
 21
118.5776264093728
 31
0.0
  0
LINE
  5
11EE2
330
11E87
100
AcDbEntity
  8
0
100
AcDbLine
 10
-2.052462558619958
 20
143.3400081171165
 30
0.0
 11
6.366527554882363
 21
148.2007143254518
 31
0.0
  0
LINE
  5
11EE3
330
11E87
100
AcDbEntity
  8
0
100
AcDbLine
 10
6.366527554882363
 20
148.2007143254518
 30
0.0
 11
8.378104926001853
 21
149.3620990621635
 31
0.0
  0
LINE
  5
11EE4
330
11E87
100
AcDbEntity
  8
0
100
AcDbLine
 10
42.84881804672587
 20
6.91402804007474
 30
0.0
 11
42.84881804672579
 21
117.4162416726612
 31
0.0
  0
LINE
  5
11EE5
330
11E87
100
AcDbEntity
  8
0
100
AcDbLine
 10
44.86039541784537
 20
8.075412776786343
 30
0.0
 11
44.86039541784529
 21
118.5776264093728
 31
0.0
  0
LINE
  5
11EE6
330
11E87
100
AcDbEntity
  8
0
100
AcDbLine
 10
34.42982793322347
 20
131.9983602976673
 30
0.0
 11
6.366527554882361
 21
148.2007143254518
 31
0.0
  0
LINE
  5
11EE7
330
11E87
100
AcDbEntity
  8
0
100
AcDbLine
 10
-2.052462558619958
 20
143.3400081171165
 30
0.0
 11
-2.052462558619847
 21
32.83779448453002
 31
0.0
  0
LINE
  5
11EE8
330
11E87
100
AcDbEntity
  8
0
100
AcDbLine
 10
36.44140530434295
 20
133.1597450343789
 30
0.0
 11
8.378104926001853
 21
149.3620990621635
 31
0.0
  0
LINE
  5
11EE9
330
11E87
100
AcDbEntity
  8
0
100
AcDbLine
 10
42.84881804672587
 20
6.91402804007474
 30
0.0
 11
44.86039541784537
 21
8.075412776786343
 31
0.0
  0
ELLIPSE
  5
11EEA
330
11E87
100
AcDbEntity
  8
0
100
AcDbEllipse
 10
-5.003077717801467
 20
27.43505194619459
 30
0.0
 11
4.825999999999983
 21
-8.358877197327378
 31
0.0
210
0.0
220
0.0
230
1.0
 40
0.5773502691896259
 41
0.8028514559173913
 42
1.90912499655629
  0
SPLINE
  5
11EEB
330
11E87
100
AcDbEntity
  8
0
100
AcDbSpline
210
0.0
220
0.0
230
1.0
 70
     8
 71
     3
 72
    10
 73
     6
 74
     0
 42
0.000000001
 43
0.0000000001
 40
-0.4780248249070606
 40
-0.4780248249070606
 40
-0.4780248249070606
 40
-0.4780248249070606
 40
-0.3962814415815694
 40
-0.3962814415815694
 40
-0.3577207361501106
 40
-0.3577207361501106
 40
-0.3577207361501106
 40
-0.3577207361501106
 10
-2.052462558619798
 20
32.83779448453215
 30
0.0
 10
-2.057282100635537
 20
32.61730585271465
 30
0.0
 10
-2.085305196644133
 20
32.38383021897608
 30
0.0
 10
-2.158563504389174
 20
32.02994844540106
 30
0.0
 10
-2.186864287369232
 20
31.91507020916589
 30
0.0
 10
-2.219798040465055
 20
31.79941454860977
 30
0.0
  0
ELLIPSE
  5
11EEC
330
11E87
100
AcDbEntity
  8
0
100
AcDbEllipse
 10
-0.1906999166515355
 20
22.47139421478096
 30
0.0
 11
-2.845016671409655
 21
0.0003752858813616
 31
0.0
210
0.0
220
0.0
230
1.0
 40
0.5773502557949274
 41
3.927143133426287
 42
5.489000844442663
  0
LINE
  5
11EED
330
11E87
100
AcDbEntity
  8
0
100
AcDbLine
 10
3.616773130611123
 20
-101.1745124129726
 30
0.0
 11
10.21499365603216
 21
-104.9839968094969
 31
0.0
  0
LINE
  5
11EEE
330
11E87
100
AcDbEntity
  8
0
100
AcDbLine
 10
34.83124538183537
 20
-125.9156366322318
 30
0.0
 11
33.86563173612513
 21
-125.3581393339478
 31
0.0
  0
ELLIPSE
  5
11EEF
330
11E87
100
AcDbEntity
  8
0
100
AcDbEllipse
 10
36.9621492607333
 20
0.9053266974114748
 30
0.0
 11
1.958652948960992
 21
7.645975295001257
 31
0.0
210
0.0
220
0.0
230
1.0
 40
0.2824859536681289
 41
4.642855760799728
 42
4.649031785879197
  0
LINE
  5
11EF0
330
11E87
100
AcDbEntity
  8
0
100
AcDbLine
 10
42.72318001595157
 20
5.851574069554157
 30
0.0
 11
40.9876682440498
 21
-1.302947727589476
 31
0.0
  0
SPLINE
  5
11EF1
330
11E87
100
AcDbEntity
  8
0
100
AcDbSpline
210
0.0
220
0.0
230
1.0
 70
     8
 71
     3
 72
    16
 73
    12
 74
     0
 42
0.000000001
 43
0.0000000001
 40
-0.6535552917940049
 40
-0.6535552917940049
 40
-0.6535552917940049
 40
-0.6535552917940049
 40
-0.5440372284817718
 40
-0.5440372284817718
 40
-0.4153261261603481
 40
-0.4153261261603481
 40
-0.2323475610723142
 40
-0.2323475610723142
 40
-0.1902941471934274
 40
-0.1902941471934274
 40
-0.1778435367564611
 40
-0.1778435367564611
 40
-0.1778435367564611
 40
-0.1778435367564611
 10
38.99368455800708
 20
-0.1309586423081299
 30
0.0
 10
39.22156074737159
 20
0.6783123357506149
 30
0.0
 10
39.52358075382189
 20
1.432502597732128
 30
0.0
 10
40.33261555863811
 20
2.94320108130849
 30
0.0
 10
40.80311042944217
 20
3.559106460531751
 30
0.0
 10
41.7902126680461
 20
4.695025528651193
 30
0.0
 10
42.2931793228252
 20
5.122814128399824
 30
0.0
 10
42.61394158575242
 20
5.588053210351056
 30
0.0
 10
42.66415745416214
 20
5.676658946061596
 30
0.0
 10
42.70749286223637
 20
5.79479356746452
 30
0.0
 10
42.71618581071521
 20
5.822740964168566
 30
0.0
 10
42.72318001595157
 20
5.851574069554157
 30
0.0
  0
LINE
  5
11EF2
330
11E87
100
AcDbEntity
  8
0
100
AcDbLine
 10
40.9876682440498
 20
-1.302947727589476
 30
0.0
 11
38.95875654679712
 21
-0.1655314276677444
 31
0.0
  0
LINE
  5
11EF3
330
11E87
100
AcDbEntity
  8
0
100
AcDbLine
 10
-2.201708006524492
 20
23.57452025498917
 30
0.0
 11
-2.202583707417149
 21
23.63295586295772
 31
0.0
  0
LINE
  5
11EF4
330
11E87
100
AcDbEntity
  8
0
100
AcDbLine
 10
-4.21446749818275
 20
24.79451751113448
 30
0.0
 11
-2.202583707417149
 21
23.63295586295772
 31
0.0
  0
ELLIPSE
  5
11EF5
330
11E87
100
AcDbEntity
  8
0
100
AcDbEllipse
 10
-0.188948514866234
 20
22.35452299884388
 30
0.0
 11
1.713249815145677
 21
7.780352644413314
 31
0.0
210
0.0
220
0.0
230
0.9999999999999998
 40
0.2809423609205
 41
1.466491327579773
 42
1.475429943358297
  0
SPLINE
  5
11EF6
330
11E87
100
AcDbEntity
  8
0
100
AcDbSpline
210
0.0
220
0.0
230
1.0
 70
     8
 71
     3
 72
    16
 73
    12
 74
     0
 42
0.000000001
 43
0.0000000001
 40
-1.162339603698974
 40
-1.162339603698974
 40
-1.162339603698974
 40
-1.162339603698974
 40
-1.147834256302633
 40
-1.147834256302633
 40
-1.036972199347248
 40
-1.036972199347248
 40
-0.6452557208226662
 40
-0.6452557208226662
 40
-0.2954461127886789
 40
-0.2954461127886789
 40
0.0
 40
0.0
 40
0.0
 40
0.0
 10
-2.219798040465064
 20
31.79941454860977
 30
0.0
 10
-2.223257103162086
 20
31.78726698303441
 30
0.0
 10
-2.226411872021345
 20
31.77490005371432
 30
0.0
 10
-2.251260040637355
 20
31.66643807214951
 30
0.0
 10
-2.258783766655527
 20
31.55169774128531
 30
0.0
 10
-2.2464778396614
 20
30.95907491561721
 30
0.0
 10
-2.108478063329086
 20
30.27759626288827
 30
0.0
 10
-1.878912928951312
 20
28.6087452002066
 30
0.0
 10
-1.775530130948475
 20
27.60498642147008
 30
0.0
 10
-1.839707274797062
 20
25.48408632904248
 30
0.0
 10
-1.963778334652817
 20
24.54385761893313
 30
0.0
 10
-2.184522856559243
 20
23.643290493238
 30
0.0
  0
LINE
  5
11EF7
330
11E87
100
AcDbEntity
  8
0
100
AcDbLine
 10
-4.21446749818275
 20
24.79451751113448
 30
0.0
 11
-2.219798040465064
 21
31.79941454860977
 31
0.0
  0
ELLIPSE
  5
11EF8
330
11E87
100
AcDbEntity
  8
0
100
AcDbEllipse
 10
-1.163417202633874
 20
-119.4419536757225
 30
0.0
 11
-8.724899999999999
 21
0.0000000000005163
 31
0.0
210
0.0
220
0.0
230
1.0
 40
0.5773502691896261
 41
3.559443108905256
 42
8.692887270672816
  0
ELLIPSE
  5
11EF9
330
11E87
100
AcDbEntity
  8
0
100
AcDbEllipse
 10
-1.163417202633869
 20
-121.7647231491457
 30
0.0
 11
-8.724899999999998
 21
-0.0000000000005265
 31
0.0
210
0.0
220
0.0
230
1.0
 40
0.577350269189626
 41
3.68097317031327
 42
6.050536348374157
  0
ELLIPSE
  5
11EFA
330
11E87
100
AcDbEntity
  8
0
100
AcDbEllipse
 10
-1.163417202633878
 20
-124.3033455604656
 30
0.0
 11
-8.724900000000005
 21
-0.0000000000005307
 31
0.0
210
0.0
220
0.0
230
1.0
 40
0.5773502691896255
 41
3.796158996565221
 42
5.779636132671351
  0
ELLIPSE
  5
11EFB
330
11E87
100
AcDbEntity
  8
0
100
AcDbEllipse
 10
-1.163417202633878
 20
-121.9805760870424
 30
0.0
 11
-8.724899999999998
 21
-0.000000000000008
 31
0.0
210
0.0
220
0.0
230
1.0
 40
0.5773502691896257
 41
3.691355082155242
 42
6.028458249147332
  0
ELLIPSE
  5
11EFC
330
11E87
100
AcDbEntity
  8
0
100
AcDbEllipse
 10
-1.163417202633878
 20
-124.3111377445456
 30
0.0
 11
8.724900000000001
 21
-0.000000000000521
 31
0.0
210
0.0
220
0.0
230
1.0
 40
0.5773502691896264
 41
0.6548997649718534
 42
2.637160210572016
  0
ELLIPSE
  5
11EFD
330
11E87
100
AcDbEntity
  8
0
100
AcDbEllipse
 10
-1.163417202633869
 20
-126.6339072179688
 30
0.0
 11
-8.724899999999999
 21
-0.0000000000005218
 31
0.0
210
0.0
220
0.0
230
1.0
 40
0.5773502691896264
 41
3.936596893220221
 42
5.488181067548685
  0
ELLIPSE
  5
11EFE
330
11E87
100
AcDbEntity
  8
0
100
AcDbEllipse
 10
-1.163417202633869
 20
-128.9943431351753
 30
0.0
 11
-8.724899999999959
 21
-0.0000000000000056
 31
0.0
210
0.0
220
0.0
230
1.0
 40
0.577350269189626
 41
4.388991577646805
 42
5.035786383122573
  0
ELLIPSE
  5
11EFF
330
11E87
100
AcDbEntity
  8
0
100
AcDbEllipse
 10
-1.163417202633874
 20
-126.6715736617522
 30
0.0
 11
8.724899999999992
 21
-0.0000000000005163
 31
0.0
210
0.0
220
0.0
230
1.0
 40
0.5773502691896258
 41
0.8003577758477131
 42
2.341234877742548
  0
LINE
  5
11F00
330
11E87
100
AcDbEntity
  8
0
100
AcDbLine
 10
0.4987687004910147
 20
-140.4156761277141
 30
0.0
 11
38.95875654679712
 21
-0.1655314276677444
 31
0.0
  0
LINE
  5
11F01
330
11E87
100
AcDbEntity
  8
0
100
AcDbLine
 10
0.4987687004910147
 20
-140.4156761277141
 30
0.0
 11
2.510039698633588
 21
-141.6174218968153
 31
0.0
  0
LINE
  5
11F02
330
11E87
100
AcDbEntity
  8
0
100
AcDbLine
 10
40.9876682440498
 20
-1.302947727589476
 30
0.0
 11
2.510039698633588
 21
-141.6174218968153
 31
0.0
  0
LINE
  5
11F03
330
11E87
100
AcDbEntity
  8
0
100
AcDbLine
 10
-4.402474841222194
 20
-102.2626620168462
 30
0.0
 11
-1.960167294425283
 21
-100.8525950972592
 31
0.0
  0
ELLIPSE
  5
11F04
330
11E87
100
AcDbEntity
  8
0
100
AcDbEllipse
 10
0.051103703717299
 20
-101.9732650325398
 30
0.0
 11
-1.422399999999838
 21
2.463669068686068
 31
0.0
210
0.0
220
0.0
230
0.9999999999999998
 40
0.5773502691896307
 41
0.8028514559176027
 42
2.236400110598289
  0
ELLIPSE
  5
11F05
330
11E87
100
AcDbEntity
  8
0
100
AcDbEllipse
 10
-35.00038712366428
 20
-122.2102526972263
 30
0.0
 11
-2.844800000000137
 21
4.927338137371952
 31
0.0
210
0.0
220
0.0
230
0.9999999999999998
 40
0.5773502691896431
 41
0.8028514559173789
 42
1.282857883414334
  0
LINE
  5
11F06
330
11E87
100
AcDbEntity
  8
0
100
AcDbLine
 10
-35.61673033386806
 20
-119.3079921835022
 30
0.0
 11
-0.9313890918508249
 21
-139.3335832865149
 31
0.0
  0
LINE
  5
11F07
330
11E87
100
AcDbEntity
  8
0
100
AcDbLine
 10
-3.056117690095785
 20
-145.336490644393
 30
0.0
 11
-0.9313890918508116
 21
-146.5632032725446
 31
0.0
  0
LINE
  5
11F08
330
11E87
100
AcDbEntity
  8
0
100
AcDbLine
 10
-3.856199091850833
 20
-149.1756975387269
 30
0.0
 11
-38.54154033386804
 21
-129.1501064357142
 31
0.0
  0
ELLIPSE
  5
11F09
330
11E87
100
AcDbEntity
  8
0
100
AcDbEllipse
 10
33.53898852973022
 20
-118.9769426939263
 30
0.0
 11
2.844800000000017
 21
-4.927338137371954
 31
0.0
210
0.0
220
0.0
230
1.0
 40
0.5773502691896254
 41
0.0
 42
0.7679448708775105
  0
ELLIPSE
  5
11F0A
330
11E87
100
AcDbEntity
  8
0
100
AcDbEllipse
 10
-1.512502297651567
 20
-139.2139303586129
 30
0.0
 11
2.844800000000052
 21
-4.927338137371922
 31
0.0
210
0.0
220
0.0
230
0.9999999999999998
 40
0.5773502691896191
 41
5.497787143782121
 42
7.051130178057089
  0
ELLIPSE
  5
11F0B
330
11E87
100
AcDbEntity
  8
0
100
AcDbEllipse
 10
-1.512502297651567
 20
-139.2139303586129
 30
0.0
 11
1.422400000000023
 21
-2.463669068685959
 31
0.0
210
0.0
220
0.0
230
0.9999999999999998
 40
0.5773502691896209
 41
5.722916269674673
 42
7.051130178057085
  0
LINE
  5
11F0C
330
11E87
100
AcDbEntity
  8
0
100
AcDbLine
 10
-1.512502297651558
 20
-143.8594693054593
 30
0.0
 11
-1.512502297651558
 21
-142.0854027951365
 31
0.0
  0
LINE
  5
11F0D
330
11E87
100
AcDbEntity
  8
0
100
AcDbLine
 10
2.510039698633588
 20
-141.6174218968153
 30
0.0
 11
37.56153052601538
 21
-121.3804342321287
 31
0.0
  0
LINE
  5
11F0E
330
11E87
100
AcDbEntity
  8
0
100
AcDbLine
 10
1.33229770234847
 20
-144.1412684959848
 30
0.0
 11
36.38378852973023
 21
-123.9042808312982
 31
0.0
  0
ENDBLK
  5
11E89
330
11E87
100
AcDbEntity
  8
0
100
AcDbBlockEnd
  0
ENDSEC
  0
SECTION
  2
ENTITIES
  0
INSERT
  5
11F0F
330
1F
100
AcDbEntity
  8
0
100
AcDbBlockReference
  2
HTT4-Front
 10
0.0
 20
0.0
 30
0.0
  0
INSERT
  5
11F10
330
1F
100
AcDbEntity
  8
0
100
AcDbBlockReference
  2
HTT4-Left
 10
126.2602367074474
 20
0.0
 30
0.0
  0
INSERT
  5
11F11
330
1F
100
AcDbEntity
  8
0
100
AcDbBlockReference
  2
HTT4-Right
 10
-126.2602367074475
 20
0.0
 30
0.0
  0
INSERT
  5
11F12
330
1F
100
AcDbEntity
  8
0
100
AcDbBlockReference
  2
HTT4-Top
 10
0.0
 20
-94.2975
 30
0.0
  0
INSERT
  5
11F13
330
1F
100
AcDbEntity
  8
0
100
AcDbBlockReference
  2
HTT4-Bottom
 10
0.0
 20
408.6224999999999
 30
0.0
  0
INSERT
  5
11F14
330
1F
100
AcDbEntity
  8
0
100
AcDbBlockReference
  2
HTT4-ISO
 10
166.0132730106797
 20
-243.6595990621635
 30
0.0
  0
MTEXT
  5
11F15
330
1F
100
AcDbEntity
  8
0
100
AcDbMText
 10
0.0
 20
-251.9802226988784
 30
0.0
 40
31.4325
 41
0.0
 71
     5
 72
     5
  1
HTT4
 73
     1
 44
1.0
1001
ACAD
1000
MTEXTBEGIN
1070
    73
1070
     1
1070
    44
1040
1.0
1070
    74
1070
     0
1000
MTEXTEND
  0
ENDSEC
  0
SECTION
  2
OBJECTS
  0
DICTIONARY
  5
C
330
0
100
AcDbDictionary
281
     1
  3
ACAD_CIP_PREVIOUS_PRODUCT_INFO
350
216
  3
ACAD_COLOR
350
6B
  3
ACAD_DETAILVIEWSTYLE
350
21B
  3
ACAD_GROUP
350
D
  3
ACAD_LAYOUT
350
1A
  3
ACAD_MATERIAL
350
6A
  3
ACAD_MLEADERSTYLE
350
12D
  3
ACAD_MLINESTYLE
350
17
  3
ACAD_PLOTSETTINGS
350
19
  3
ACAD_PLOTSTYLENAME
350
E
  3
ACAD_SCALELIST
350
10C
  3
ACAD_SECTIONVIEWSTYLE
350
219
  3
ACAD_TABLESTYLE
350
7E
  3
ACAD_VISUALSTYLE
350
EF
  3
ACDB_RECOMPOSE_DATA
350
12016
  3
AcDbVariableDictionary
350
5E
  3
DWGPROPS
350
12017
  0
DICTIONARY
  5
11F66
330
8
100
AcDbDictionary
280
     1
281
     1
  0
DICTIONARY
  5
1FF
330
2
100
AcDbDictionary
280
     1
281
     1
  3
ACAD_LAYERSTATES
360
200
  0
DICTIONARY
  5
13C
330
10
100
AcDbDictionary
280
     1
281
     1
  0
DICTIONARY
  5
1CE
330
1F
100
AcDbDictionary
280
     1
281
     1
  3
ACAD_LAYOUTSELFREF
360
11F6E
  0
DICTIONARY
  5
11F19
330
D2
100
AcDbDictionary
280
     1
281
     1
  3
ACAD_LAYOUTSELFREF
360
11F77
  0
DICTIONARY
  5
11F1B
330
D6
100
AcDbDictionary
280
     1
281
     1
  3
ACAD_LAYOUTSELFREF
360
11F7A
  0
XRECORD
  5
216
102
{ACAD_REACTORS
330
C
102
}
330
C
100
AcDbXrecord
280
     1
300
ACD
300
2021
300

  0
DICTIONARY
  5
6B
102
{ACAD_REACTORS
330
C
102
}
330
C
100
AcDbDictionary
281
     1
  0
DICTIONARY
  5
21B
102
{ACAD_REACTORS
330
C
102
}
330
C
100
AcDbDictionary
281
     1
  3
Metric50
350
21C
  0
DICTIONARY
  5
D
102
{ACAD_REACTORS
330
C
102
}
330
C
100
AcDbDictionary
281
     1
  0
DICTIONARY
  5
1A
102
{ACAD_REACTORS
330
C
102
}
330
C
100
AcDbDictionary
281
     1
  3
Layout1
350
D3
  3
Layout2
350
D7
  3
Model
350
22
  0
DICTIONARY
  5
6A
102
{ACAD_REACTORS
330
C
102
}
330
C
100
AcDbDictionary
281
     1
  3
ByBlock
350
ED
  3
ByLayer
350
EC
  3
Global
350
EE
  0
DICTIONARY
  5
12D
102
{ACAD_REACTORS
330
C
102
}
330
C
100
AcDbDictionary
281
     1
  3
Standard
350
12E
  0
DICTIONARY
  5
17
102
{ACAD_REACTORS
330
C
102
}
330
C
100
AcDbDictionary
281
     1
  3
Standard
350
18
  0
DICTIONARY
  5
19
102
{ACAD_REACTORS
330
C
102
}
330
C
100
AcDbDictionary
281
     1
  0
ACDBDICTIONARYWDFLT
  5
E
102
{ACAD_REACTORS
330
C
102
}
330
C
100
AcDbDictionary
281
     1
  3
Normal
350
F
100
AcDbDictionaryWithDefault
340
F
  0
DICTIONARY
  5
10C
102
{ACAD_REACTORS
330
C
102
}
330
C
100
AcDbDictionary
281
     1
  3
A0
350
10D
  3
A1
350
1BE
  3
A2
350
1BF
  3
A3
350
1C0
  3
A4
350
1C1
  3
A5
350
1C2
  3
A6
350
1C3
  3
A7
350
1C4
  3
A8
350
1C5
  3
A9
350
1C6
  3
B0
350
1C7
  3
B1
350
1C8
  3
B2
350
1C9
  3
B3
350
1CA
  3
B4
350
1CB
  3
B5
350
1CC
  3
B6
350
1CD
  0
DICTIONARY
  5
219
102
{ACAD_REACTORS
330
C
102
}
330
C
100
AcDbDictionary
281
     1
  3
Metric50
350
21A
  0
DICTIONARY
  5
7E
102
{ACAD_REACTORS
330
C
102
}
330
C
100
AcDbDictionary
281
     1
  3
Standard
350
7F
  0
DICTIONARY
  5
EF
102
{ACAD_REACTORS
330
C
102
}
330
C
100
AcDbDictionary
281
     1
  3
2dWireframe
350
F5
  3
Basic
350
F4
  3
Brighten
350
FB
  3
ColorChange
350
FF
  3
Conceptual
350
F8
  3
Dim
350
FA
  3
EdgeColorOff
350
1E6
  3
Facepattern
350
FE
  3
Flat
350
F0
  3
FlatWithEdges
350
F1
  3
Gouraud
350
F2
  3
GouraudWithEdges
350
F3
  3
Hidden
350
F7
  3
JitterOff
350
1E4
  3
Linepattern
350
FD
  3
OverhangOff
350
1E5
  3
Realistic
350
F9
  3
Shaded
350
1F3
  3
Shaded with edges
350
1F2
  3
Shades of Gray
350
1EF
  3
Sketchy
350
1F0
  3
Thicken
350
FC
  3
Wireframe
350
F6
  3
X-Ray
350
1F1
  0
XRECORD
  5
12016
102
{ACAD_REACTORS
330
C
102
}
330
C
100
AcDbXrecord
280
     1
 90
        1
330
7F
  0
DICTIONARY
  5
5E
102
{ACAD_REACTORS
330
C
102
}
330
C
100
AcDbDictionary
281
     1
  3
CANNOSCALE
350
146
  3
CENTEREXE
350
259
  3
CENTERLTYPEFILE
350
25A
  3
CMLEADERSTYLE
350
145
  3
CTABLESTYLE
350
84
  3
CVIEWDETAILSTYLE
350
227
  3
CVIEWSECTIONSTYLE
350
228
  3
DIMASSOC
350
5F
  3
HIDETEXT
350
63
  3
INDEXCTL
350
11FC3
  3
LAYEREVAL
350
1AE
  3
LAYERNOTIFY
350
1AF
  3
LIGHTINGUNITS
350
11FC1
  3
MSLTSCALE
350
11FC0
  3
PSOLHEIGHT
350
12013
  3
PSOLWIDTH
350
12012
  3
SORTENTS
350
11FC2
  3
XCLIPFRAME
350
12014
  0
XRECORD
  5
12017
102
{ACAD_REACTORS
330
C
102
}
330
C
100
AcDbXrecord
280
     1
  1
DWGPROPS COOKIE
  2

  3

  4

  6

  7

  8
tronnguyen
  9

300
=
301
=
302
=
303
=
304
=
305
=
306
=
307
=
308
=
309
=
 40
0.0012152777777778
 41
2460105.576319445
 42
2460105.582638889
  1

 90
        0
  0
DICTIONARY
  5
200
102
{ACAD_REACTORS
330
1FF
102
}
330
1FF
100
AcDbDictionary
281
     1
  0
XRECORD
  5
11F6E
102
{ACAD_REACTORS
330
1CE
102
}
330
1CE
100
AcDbXrecord
280
     1
340
1F
  0
XRECORD
  5
11F77
102
{ACAD_REACTORS
330
11F19
102
}
330
11F19
100
AcDbXrecord
280
     1
340
D2
  0
XRECORD
  5
11F7A
102
{ACAD_REACTORS
330
11F1B
102
}
330
11F1B
100
AcDbXrecord
280
     1
340
D6
  0
ACDBDETAILVIEWSTYLE
  5
21C
102
{ACAD_XDICTIONARY
360
12056
102
}
102
{ACAD_REACTORS
330
21B
102
}
330
21B
100
AcDbModelDocViewStyle
 70
     0
  3
Metric50
290
     0
100
AcDbDetailViewStyle
 70
     0
 71
     0
 90
        3
 71
     1
340
11
 40
5.0
340
0
 40
5.0
300

 40
0.0
280
     1
 71
     2
340
16
 90
       25
 71
     3
340
11
 40
5.0
 90
        0
 40
15.0
 90
        1
300
%<\AcVar ViewDetailId>% (%<\AcVar ViewScale \f "%sn">%)
 71
     4
340
16
 90
       25
340
16
 90
       25
280
     0
  0
LAYOUT
  5
D3
102
{ACAD_XDICTIONARY
360
1201B
102
}
102
{ACAD_REACTORS
330
1A
102
}
330
1A
100
AcDbPlotSettings
  1

  2
C:\Documents and Settings\basas\Application Data\Autodesk\AutoCAD 2005\R16.1\enu\plotters\Default Windows System Printer.pc3
  4

  6

 40
0.0
 41
0.0
 42
0.0
 43
0.0
 44
0.0
 45
0.0
 46
0.0
 47
0.0
 48
0.0
 49
0.0
140
0.0
141
0.0
142
1.0
143
1.0
 70
   688
 72
     0
 73
     0
 74
     5
  7

 75
    16
147
1.0
148
0.0
149
0.0
100
AcDbLayout
  1
Layout1
 70
     1
 71
     1
 10
0.0
 20
0.0
 11
12.0
 21
9.0
 12
0.0
 22
0.0
 32
0.0
 14
0.0
 24
0.0
 34
0.0
 15
0.0
 25
0.0
 35
0.0
146
0.0
 13
0.0
 23
0.0
 33
0.0
 16
1.0
 26
0.0
 36
0.0
 17
0.0
 27
1.0
 37
0.0
 76
     0
330
D2
  0
LAYOUT
  5
D7
102
{ACAD_XDICTIONARY
360
1201D
102
}
102
{ACAD_REACTORS
330
1A
102
}
330
1A
100
AcDbPlotSettings
  1

  2
C:\Documents and Settings\basas\Application Data\Autodesk\AutoCAD 2005\R16.1\enu\plotters\Default Windows System Printer.pc3
  4

  6

 40
0.0
 41
0.0
 42
0.0
 43
0.0
 44
0.0
 45
0.0
 46
0.0
 47
0.0
 48
0.0
 49
0.0
140
0.0
141
0.0
142
1.0
143
1.0
 70
   688
 72
     0
 73
     0
 74
     5
  7

 75
    16
147
1.0
148
0.0
149
0.0
100
AcDbLayout
  1
Layout2
 70
     1
 71
     2
 10
0.0
 20
0.0
 11
12.0
 21
9.0
 12
0.0
 22
0.0
 32
0.0
 14
0.0
 24
0.0
 34
0.0
 15
0.0
 25
0.0
 35
0.0
146
0.0
 13
0.0
 23
0.0
 33
0.0
 16
1.0
 26
0.0
 36
0.0
 17
0.0
 27
1.0
 37
0.0
 76
     0
330
D6
  0
LAYOUT
  5
22
102
{ACAD_XDICTIONARY
360
12018
102
}
102
{ACAD_REACTORS
330
1A
102
}
330
1A
100
AcDbPlotSettings
  1

  2
none_device
  4
ISO_A4_(210.00_x_297.00_MM)
  6

 40
7.5
 41
20.0
 42
7.5
 43
20.0
 44
210.0
 45
297.0
 46
11.54999923706054
 47
-13.65000009536743
 48
0.0
 49
0.0
140
0.0
141
0.0
142
1.0
143
8.704084754739808
 70
 11952
 72
     1
 73
     0
 74
     0
  7

 75
     0
147
0.1148885871608098
148
0.0
149
0.0
100
AcDbLayout
  1
Model
 70
     1
 71
     0
 10
0.0
 20
0.0
 11
12.0
 21
9.0
 12
0.0
 22
0.0
 32
0.0
 14
0.0
 24
0.0
 34
0.0
 15
0.0
 25
0.0
 35
0.0
146
0.0
 13
0.0
 23
0.0
 33
0.0
 16
1.0
 26
0.0
 36
0.0
 17
0.0
 27
1.0
 37
0.0
 76
     0
330
1F
331
EA
1001
ACAD_PSEXT
1000
None
1000
None
1000
Not applicable
1000
The layout will not be plotted unless a new plotter configuration name is selected.
1070
     0
  0
MATERIAL
  5
ED
102
{ACAD_XDICTIONARY
360
1F9
102
}
102
{ACAD_REACTORS
330
6A
102
}
330
6A
100
AcDbMaterial
  1
ByBlock
  0
MATERIAL
  5
EC
102
{ACAD_XDICTIONARY
360
1F7
102
}
102
{ACAD_REACTORS
330
6A
102
}
330
6A
100
AcDbMaterial
  1
ByLayer
  0
MATERIAL
  5
EE
102
{ACAD_XDICTIONARY
360
173
102
}
102
{ACAD_REACTORS
330
6A
102
}
330
6A
100
AcDbMaterial
  1
Global
 43
0.0007999999797903
 43
0.0
 43
0.0
 43
0.0
 43
0.0
 43
0.0007999999797903
 43
0.0
 43
0.0
 43
0.0
 43
0.0
 43
1.0
 43
0.0
 43
0.0
 43
0.0
 43
0.0
 43
1.0
 49
0.0007999999797903
 49
0.0
 49
0.0
 49
0.0
 49
0.0
 49
0.0007999999797903
 49
0.0
 49
0.0
 49
0.0
 49
0.0
 49
1.0
 49
0.0
 49
0.0
 49
0.0
 49
0.0
 49
1.0
142
0.0007999999797903
142
0.0
142
0.0
142
0.0
142
0.0
142
0.0007999999797903
142
0.0
142
0.0
142
0.0
142
0.0
142
1.0
142
0.0
142
0.0
142
0.0
142
0.0
142
1.0
144
0.0007999999797903
144
0.0
144
0.0
144
0.0
144
0.0
144
0.0007999999797903
144
0.0
144
0.0
144
0.0
144
0.0
144
1.0
144
0.0
144
0.0
144
0.0
144
0.0
144
1.0
1001
ACAD
1070
    -1
1070
     3
1070
     0
1000

1071
        0
1070
     0
  0
MLEADERSTYLE
  5
12E
102
{ACAD_XDICTIONARY
360
12042
102
}
102
{ACAD_REACTORS
330
12D
102
}
330
12D
100
AcDbMLeaderStyle
170
     2
171
     1
172
     0
 90
        2
 40
0.0
 41
0.0
173
     1
 91
-1056964608
340
14
 92
       -2
290
     1
 42
2.0
291
     1
 43
8.0
  3
Standard
 44
4.0
300

342
11
174
     1
178
     1
175
     1
176
     0
 93
-1056964608
 45
4.0
292
     0
297
     0
 46
4.0
 94
-1056964608
 47
1.0
 49
1.0
140
1.0
293
     1
141
0.0
294
     1
177
     0
142
1.0
295
     0
296
     0
143
3.75
1001
ACAD_MLEADERVER
1070
     2
  0
MLINESTYLE
  5
18
102
{ACAD_REACTORS
330
17
102
}
330
17
100
AcDbMlineStyle
  2
STANDARD
 70
     0
  3

 62
   256
 51
90.0
 52
90.0
 71
     2
 49
0.5
 62
   256
  6
BYLAYER
 49
-0.5
 62
   256
  6
BYLAYER
  0
ACDBPLACEHOLDER
  5
F
102
{ACAD_REACTORS
330
E
102
}
330
E
  0
SCALE
  5
10D
102
{ACAD_REACTORS
330
10C
102
}
330
10C
100
AcDbScale
 70
     0
300
1:1
140
1.0
141
1.0
290
     1
  0
SCALE
  5
1BE
102
{ACAD_REACTORS
330
10C
102
}
330
10C
100
AcDbScale
 70
     0
300
1:2
140
1.0
141
2.0
290
     0
  0
SCALE
  5
1BF
102
{ACAD_REACTORS
330
10C
102
}
330
10C
100
AcDbScale
 70
     0
300
1:4
140
1.0
141
4.0
290
     0
  0
SCALE
  5
1C0
102
{ACAD_REACTORS
330
10C
102
}
330
10C
100
AcDbScale
 70
     0
300
1:5
140
1.0
141
5.0
290
     0
  0
SCALE
  5
1C1
102
{ACAD_REACTORS
330
10C
102
}
330
10C
100
AcDbScale
 70
     0
300
1:8
140
1.0
141
8.0
290
     0
  0
SCALE
  5
1C2
102
{ACAD_REACTORS
330
10C
102
}
330
10C
100
AcDbScale
 70
     0
300
1:10
140
1.0
141
10.0
290
     0
  0
SCALE
  5
1C3
102
{ACAD_REACTORS
330
10C
102
}
330
10C
100
AcDbScale
 70
     0
300
1:16
140
1.0
141
16.0
290
     0
  0
SCALE
  5
1C4
102
{ACAD_REACTORS
330
10C
102
}
330
10C
100
AcDbScale
 70
     0
300
1:20
140
1.0
141
20.0
290
     0
  0
SCALE
  5
1C5
102
{ACAD_REACTORS
330
10C
102
}
330
10C
100
AcDbScale
 70
     0
300
1:30
140
1.0
141
30.0
290
     0
  0
SCALE
  5
1C6
102
{ACAD_REACTORS
330
10C
102
}
330
10C
100
AcDbScale
 70
     0
300
1:40
140
1.0
141
40.0
290
     0
  0
SCALE
  5
1C7
102
{ACAD_REACTORS
330
10C
102
}
330
10C
100
AcDbScale
 70
     0
300
1:50
140
1.0
141
50.0
290
     0
  0
SCALE
  5
1C8
102
{ACAD_REACTORS
330
10C
102
}
330
10C
100
AcDbScale
 70
     0
300
1:100
140
1.0
141
100.0
290
     0
  0
SCALE
  5
1C9
102
{ACAD_REACTORS
330
10C
102
}
330
10C
100
AcDbScale
 70
     0
300
2:1
140
2.0
141
1.0
290
     0
  0
SCALE
  5
1CA
102
{ACAD_REACTORS
330
10C
102
}
330
10C
100
AcDbScale
 70
     0
300
4:1
140
4.0
141
1.0
290
     0
  0
SCALE
  5
1CB
102
{ACAD_REACTORS
330
10C
102
}
330
10C
100
AcDbScale
 70
     0
300
8:1
140
8.0
141
1.0
290
     0
  0
SCALE
  5
1CC
102
{ACAD_REACTORS
330
10C
102
}
330
10C
100
AcDbScale
 70
     0
300
10:1
140
10.0
141
1.0
290
     0
  0
SCALE
  5
1CD
102
{ACAD_REACTORS
330
10C
102
}
330
10C
100
AcDbScale
 70
     0
300
100:1
140
100.0
141
1.0
290
     0
  0
ACDBSECTIONVIEWSTYLE
  5
21A
102
{ACAD_XDICTIONARY
360
12054
102
}
102
{ACAD_REACTORS
330
219
102
}
330
219
100
AcDbModelDocViewStyle
 70
     0
  3
Metric50
290
     0
100
AcDbSectionViewStyle
 70
     0
 71
     0
 90
      102
 71
     1
340
11
 40
5.0
340
0
340
0
 40
5.0
300
I, O, Q, S, X, Z
 40
10.0
 90
        0
 40
2.5
 90
        0
 71
     2
340
16
 90
       25
340
16
 90
       50
 40
5.0
 40
2.5
 40
5.0
 71
     3
340
11
 40
5.0
 90
        0
 40
15.0
 90
        1
300
%<\AcVar ViewSectionStartId>%-%<\AcVar ViewSectionEndId>% (%<\AcVar ViewScale \f "%sn">%)
 71
     4
300
ANSI31
 40
1.0
 90
        0
290
     0
290
     0
 90
        6
 40
0.0
 40
1.570796326794896
 40
0.2617993877991494
 40
1.308996938995747
 40
-0.2617993877991494
 40
1.832595714594046
  0
TABLESTYLE
  5
7F
102
{ACAD_XDICTIONARY
360
162
102
}
102
{ACAD_REACTORS
330
7E
102
}
330
7E
100
AcDbTableStyle
  3
Standard
 70
     0
 71
     0
 40
1.5
 41
1.5
280
     0
281
     0
  7
Standard
140
4.5
170
     2
 62
     0
 63
     7
283
     0
274
    -2
284
     1
 64
     0
275
    -2
285
     1
 65
     0
276
    -2
286
     1
 66
     0
277
    -2
287
     1
 67
     0
278
    -2
288
     1
 68
     0
279
    -2
289
     1
 69
     0
  7
Standard
140
6.0
170
     5
 62
     0
 63
     7
283
     0
274
    -2
284
     1
 64
     0
275
    -2
285
     1
 65
     0
276
    -2
286
     1
 66
     0
277
    -2
287
     1
 67
     0
278
    -2
288
     1
 68
     0
279
    -2
289
     1
 69
     0
  7
Standard
140
4.5
170
     5
 62
     0
 63
     7
283
     0
274
    -2
284
     1
 64
     0
275
    -2
285
     1
 65
     0
276
    -2
286
     1
 66
     0
277
    -2
287
     1
 67
     0
278
    -2
288
     1
 68
     0
279
    -2
289
     1
 69
     0
  0
VISUALSTYLE
  5
F5
102
{ACAD_XDICTIONARY
360
1202C
102
}
102
{ACAD_REACTORS
330
EF
102
}
330
EF
100
AcDbVisualStyle
  2
2dWireframe
 70
     4
 71
     0
 72
     2
 73
     1
 90
        0
 40
-0.6
 41
-30.0
 62
     5
 63
     7
 74
     1
 91
        4
 64
     7
 65
   257
 75
     1
175
     1
 42
1.0
 92
        0
 66
   257
 43
1.0
 76
     1
 77
     6
 78
     2
 67
     7
 79
     5
170
     0
171
     0
290
     0
174
     0
 93
        1
 44
0.0
173
     0
291
     0
 45
0.0
1001
ACAD
1000
AcDbSavedByObjectVersion
1070
     0
  0
VISUALSTYLE
  5
F4
102
{ACAD_XDICTIONARY
360
1202A
102
}
102
{ACAD_REACTORS
330
EF
102
}
330
EF
100
AcDbVisualStyle
  2
Basic
 70
     7
 71
     1
 72
     0
 73
     1
 90
        0
 40
-0.6
 41
-30.0
 62
     5
 63
     7
 74
     0
 91
        4
 64
     7
 65
   257
 75
     1
175
     1
 42
1.0
 92
        8
 66
     7
 43
1.0
 76
     1
 77
     6
 78
     2
 67
     7
 79
     5
170
     0
171
     0
290
     0
174
     0
 93
        1
 44
0.0
173
     0
291
     1
 45
0.0
1001
ACAD
1000
AcDbSavedByObjectVersion
1070
     0
  0
VISUALSTYLE
  5
FB
102
{ACAD_XDICTIONARY
360
12038
102
}
102
{ACAD_REACTORS
330
EF
102
}
330
EF
100
AcDbVisualStyle
  2
Brighten
 70
    12
 71
     2
 72
     2
 73
     1
 90
        0
 40
-0.6
 41
-30.0
 62
     5
 63
     7
 74
     1
 91
        4
 64
     7
 65
   257
 75
     1
175
     1
 42
1.0
 92
        8
 66
     7
 43
1.0
 76
     1
 77
     6
 78
     2
 67
     7
 79
     5
170
     0
171
     0
290
     0
174
     0
 93
        1
 44
50.0
173
     0
291
     1
 45
0.0
1001
ACAD
1000
AcDbSavedByObjectVersion
1070
     0
  0
VISUALSTYLE
  5
FF
102
{ACAD_XDICTIONARY
360
12040
102
}
102
{ACAD_REACTORS
330
EF
102
}
330
EF
100
AcDbVisualStyle
  2
ColorChange
 70
    16
 71
     2
 72
     2
 73
     3
 90
        0
 40
-0.6
 41
-30.0
 62
     5
 63
     8
 74
     1
 91
        4
 64
     7
 65
   257
 75
     1
175
     1
 42
1.0
 92
        8
 66
     8
 43
1.0
 76
     1
 77
     6
 78
     2
 67
     7
 79
     5
170
     0
171
     0
290
     0
174
     0
 93
        1
 44
0.0
173
     0
291
     1
 45
0.0
1001
ACAD
1000
AcDbSavedByObjectVersion
1070
     0
  0
VISUALSTYLE
  5
F8
102
{ACAD_XDICTIONARY
360
12032
102
}
102
{ACAD_REACTORS
330
EF
102
}
330
EF
100
AcDbVisualStyle
  2
Conceptual
 70
     9
 71
     3
 72
     2
 73
     1
 90
        0
 40
-0.6
 41
-30.0
 62
     5
 63
     7
 74
     2
 91
        2
 64
     7
 65
   257
 75
     1
175
     1
 42
40.0
 92
        8
 66
     7
 43
1.0
 76
     1
 77
     6
 78
     2
 67
     7
 79
     3
170
     0
171
     0
290
     0
174
     0
 93
        1
 44
0.0
173
     0
291
     0
 45
0.0
1001
ACAD
1000
AcDbSavedByObjectVersion
1070
     0
  0
VISUALSTYLE
  5
FA
102
{ACAD_XDICTIONARY
360
12036
102
}
102
{ACAD_REACTORS
330
EF
102
}
330
EF
100
AcDbVisualStyle
  2
Dim
 70
    11
 71
     2
 72
     2
 73
     1
 90
        0
 40
-0.6
 41
-30.0
 62
     5
 63
     7
 74
     1
 91
        4
 64
     7
 65
   257
 75
     1
175
     1
 42
1.0
 92
        8
 66
     7
 43
1.0
 76
     1
 77
     6
 78
     2
 67
     7
 79
     5
170
     0
171
     0
290
     0
174
     0
 93
        1
 44
-50.0
173
     0
291
     1
 45
0.0
1001
ACAD
1000
AcDbSavedByObjectVersion
1070
     0
  0
VISUALSTYLE
  5
1E6
102
{ACAD_XDICTIONARY
360
12048
102
}
102
{ACAD_REACTORS
330
EF
102
}
330
EF
100
AcDbVisualStyle
  2
EdgeColorOff
 70
    22
 71
     2
 72
     2
 73
     0
 90
        0
 40
-0.6
 41
-30.0
 62
     5
 63
     7
 74
     1
 91
        4
 64
     7
 65
   257
 75
     1
175
     1
 42
1.0
 92
        8
 66
     7
 43
1.0
 76
     1
 77
     6
 78
     2
 67
     7
 79
     5
170
     0
171
     0
290
     0
174
     0
 93
        1
 44
0.0
173
     0
291
     1
 45
0.0
1001
ACAD
1000
AcDbSavedByObjectVersion
1070
     0
  0
VISUALSTYLE
  5
FE
102
{ACAD_XDICTIONARY
360
1203E
102
}
102
{ACAD_REACTORS
330
EF
102
}
330
EF
100
AcDbVisualStyle
  2
Facepattern
 70
    15
 71
     2
 72
     2
 73
     1
 90
        0
 40
-0.6
 41
-30.0
 62
     5
 63
     7
 74
     1
 91
        4
 64
     7
 65
   257
 75
     1
175
     1
 42
1.0
 92
        8
 66
     7
 43
1.0
 76
     1
 77
     6
 78
     2
 67
     7
 79
     5
170
     0
171
     0
290
     0
174
     0
 93
        1
 44
0.0
173
     0
291
     1
 45
0.0
1001
ACAD
1000
AcDbSavedByObjectVersion
1070
     0
  0
VISUALSTYLE
  5
F0
102
{ACAD_XDICTIONARY
360
12022
102
}
102
{ACAD_REACTORS
330
EF
102
}
330
EF
100
AcDbVisualStyle
  2
Flat
 70
     0
 71
     2
 72
     1
 73
     1
 90
        2
 40
-0.6
 41
30.0
 62
     5
 63
     7
 74
     0
 91
        0
 64
     7
 65
   257
 75
     1
175
     1
 42
1.0
 92
        8
 66
     7
 43
1.0
 76
     1
 77
     6
 78
     2
 67
     7
 79
     5
170
     0
171
     0
290
     0
174
     0
 93
       13
 44
0.0
173
     0
291
     1
 45
0.0
1001
ACAD
1000
AcDbSavedByObjectVersion
1070
     0
  0
VISUALSTYLE
  5
F1
102
{ACAD_XDICTIONARY
360
12024
102
}
102
{ACAD_REACTORS
330
EF
102
}
330
EF
100
AcDbVisualStyle
  2
FlatWithEdges
 70
     1
 71
     2
 72
     1
 73
     1
 90
        2
 40
-0.6
 41
30.0
 62
     5
 63
     7
 74
     1
 91
        0
 64
     7
 65
   257
 75
     1
175
     1
 42
1.0
 92
        0
 66
   257
 43
1.0
 76
     1
 77
     6
 78
     2
 67
     7
 79
     5
170
     0
171
     0
290
     0
174
     0
 93
       13
 44
0.0
173
     0
291
     1
 45
0.0
1001
ACAD
1000
AcDbSavedByObjectVersion
1070
     0
  0
VISUALSTYLE
  5
F2
102
{ACAD_XDICTIONARY
360
12026
102
}
102
{ACAD_REACTORS
330
EF
102
}
330
EF
100
AcDbVisualStyle
  2
Gouraud
 70
     2
 71
     2
 72
     2
 73
     1
 90
        2
 40
-0.6
 41
30.0
 62
     5
 63
     7
 74
     0
 91
        0
 64
     7
 65
   257
 75
     1
175
     1
 42
1.0
 92
        0
 66
     7
 43
1.0
 76
     1
 77
     6
 78
     2
 67
     7
 79
     5
170
     0
171
     0
290
     0
174
     0
 93
       13
 44
0.0
173
     0
291
     1
 45
0.0
1001
ACAD
1000
AcDbSavedByObjectVersion
1070
     0
  0
VISUALSTYLE
  5
F3
102
{ACAD_XDICTIONARY
360
12028
102
}
102
{ACAD_REACTORS
330
EF
102
}
330
EF
100
AcDbVisualStyle
  2
GouraudWithEdges
 70
     3
 71
     2
 72
     2
 73
     1
 90
        2
 40
-0.6
 41
30.0
 62
     5
 63
     7
 74
     1
 91
        0
 64
     7
 65
   257
 75
     1
175
     1
 42
1.0
 92
        0
 66
   257
 43
1.0
 76
     1
 77
     6
 78
     2
 67
     7
 79
     5
170
     0
171
     0
290
     0
174
     0
 93
       13
 44
0.0
173
     0
291
     1
 45
0.0
1001
ACAD
1000
AcDbSavedByObjectVersion
1070
     0
  0
VISUALSTYLE
  5
F7
102
{ACAD_XDICTIONARY
360
12030
102
}
102
{ACAD_REACTORS
330
EF
102
}
330
EF
100
AcDbVisualStyle
  2
Hidden
 70
     6
 71
     1
 72
     2
 73
     2
 90
        0
 40
-0.6
 41
-30.0
 62
     5
 63
     7
 74
     2
 91
        2
 64
     7
 65
   257
 75
     2
175
     1
 42
40.0
 92
        0
 66
   257
 43
1.0
 76
     1
 77
     6
 78
     2
 67
     7
 79
     3
170
     0
171
     0
290
     0
174
     0
 93
        1
 44
0.0
173
     0
291
     0
 45
0.0
1001
ACAD
1000
AcDbSavedByObjectVersion
1070
     0
  0
VISUALSTYLE
  5
1E4
102
{ACAD_XDICTIONARY
360
12044
102
}
102
{ACAD_REACTORS
330
EF
102
}
330
EF
100
AcDbVisualStyle
  2
JitterOff
 70
    20
 71
     2
 72
     2
 73
     0
 90
        0
 40
-0.6
 41
-30.0
 62
     5
 63
     7
 74
     1
 91
        4
 64
     7
 65
   257
 75
     1
175
     1
 42
1.0
 92
       10
 66
     7
 43
1.0
 76
     1
 77
     6
 78
     2
 67
     7
 79
     5
170
     0
171
     0
290
     0
174
     0
 93
        1
 44
0.0
173
     0
291
     1
 45
0.0
1001
ACAD
1000
AcDbSavedByObjectVersion
1070
     0
  0
VISUALSTYLE
  5
FD
102
{ACAD_XDICTIONARY
360
1203C
102
}
102
{ACAD_REACTORS
330
EF
102
}
330
EF
100
AcDbVisualStyle
  2
Linepattern
 70
    14
 71
     2
 72
     2
 73
     1
 90
        0
 40
-0.6
 41
-30.0
 62
     5
 63
     7
 74
     1
 91
        4
 64
     7
 65
   257
 75
     7
175
     7
 42
1.0
 92
        8
 66
     7
 43
1.0
 76
     1
 77
     6
 78
     2
 67
     7
 79
     5
170
     0
171
     0
290
     0
174
     0
 93
        1
 44
0.0
173
     0
291
     1
 45
0.0
1001
ACAD
1000
AcDbSavedByObjectVersion
1070
     0
  0
VISUALSTYLE
  5
1E5
102
{ACAD_XDICTIONARY
360
12046
102
}
102
{ACAD_REACTORS
330
EF
102
}
330
EF
100
AcDbVisualStyle
  2
OverhangOff
 70
    21
 71
     2
 72
     2
 73
     0
 90
        0
 40
-0.6
 41
-30.0
 62
     5
 63
     7
 74
     1
 91
        4
 64
     7
 65
   257
 75
     1
175
     1
 42
1.0
 92
        9
 66
     7
 43
1.0
 76
     1
 77
     6
 78
     2
 67
     7
 79
     5
170
     0
171
     0
290
     0
174
     0
 93
        1
 44
0.0
173
     0
291
     1
 45
0.0
1001
ACAD
1000
AcDbSavedByObjectVersion
1070
     0
  0
VISUALSTYLE
  5
F9
102
{ACAD_XDICTIONARY
360
12034
102
}
102
{ACAD_REACTORS
330
EF
102
}
330
EF
100
AcDbVisualStyle
  2
Realistic
 70
     8
 71
     2
 72
     2
 73
     0
 90
        2
 40
-0.6
 41
30.0
 62
     5
 63
     7
 74
     0
 91
        0
 64
     7
 65
   257
 75
     1
175
     1
 42
1.0
 92
        8
 66
   257
 43
1.0
 76
     1
 77
     6
 78
     2
 67
     7
 79
     3
170
     0
171
     0
290
     0
174
     0
 93
       13
 44
0.0
173
     0
291
     0
 45
0.0
1001
ACAD
1000
AcDbSavedByObjectVersion
1070
     0
  0
VISUALSTYLE
  5
1F3
102
{ACAD_XDICTIONARY
360
12052
102
}
102
{ACAD_REACTORS
330
EF
102
}
330
EF
100
AcDbVisualStyle
  2
Shaded
 70
    27
 71
     2
 72
     2
 73
     1
 90
        2
 40
-0.6
 41
30.0
 62
     5
 63
     7
 74
     0
 91
        4
 64
     7
 65
   257
 75
     1
175
     1
 42
1.0
 92
        8
 66
   257
 43
1.0
 76
     1
 77
     6
 78
     2
 67
     8
 79
     3
170
     0
171
     0
290
     0
174
     0
 93
        5
 44
0.0
173
     0
291
     0
 45
0.0
1001
ACAD
1000
AcDbSavedByObjectVersion
1070
     0
  0
VISUALSTYLE
  5
1F2
102
{ACAD_XDICTIONARY
360
12050
102
}
102
{ACAD_REACTORS
330
EF
102
}
330
EF
100
AcDbVisualStyle
  2
Shaded with edges
 70
    26
 71
     2
 72
     2
 73
     1
 90
        2
 40
-0.6
 41
30.0
 62
     5
 63
     7
 74
     1
 91
        2
 64
     7
 65
   257
 75
     2
175
     1
 42
1.0
 92
        8
 66
   257
 43
1.0
 76
     1
 77
     6
 78
     2
 67
     7
 79
     3
170
     0
171
     0
290
     0
174
     0
 93
        5
 44
0.0
173
     0
291
     0
 45
0.0
1001
ACAD
1000
AcDbSavedByObjectVersion
1070
     0
  0
VISUALSTYLE
  5
1EF
102
{ACAD_XDICTIONARY
360
1204A
102
}
102
{ACAD_REACTORS
330
EF
102
}
330
EF
100
AcDbVisualStyle
  2
Shades of Gray
 70
    23
 71
     2
 72
     2
 73
     3
 90
        0
 40
-0.6
 41
-30.0
 62
     5
 63
     7
 74
     2
 91
        2
 64
     7
 65
     7
 75
     1
175
     1
 42
40.0
 92
        8
 66
     7
 43
1.0
 76
     1
 77
     6
 78
     2
 67
     7
 79
     3
170
     0
171
     0
290
     0
174
     0
 93
        1
 44
0.0
173
     0
291
     0
 45
0.0
1001
ACAD
1000
AcDbSavedByObjectVersion
1070
     0
  0
VISUALSTYLE
  5
1F0
102
{ACAD_XDICTIONARY
360
1204C
102
}
102
{ACAD_REACTORS
330
EF
102
}
330
EF
100
AcDbVisualStyle
  2
Sketchy
 70
    24
 71
     1
 72
     2
 73
     2
 90
        0
 40
-0.6
 41
-30.0
 62
     5
 63
     7
 74
     2
 91
        2
 64
     7
 65
     7
 75
     1
175
     1
 42
40.0
 92
       11
 66
     7
 43
1.0
 76
     1
 77
     6
 78
     2
 67
     7
 79
     6
170
     0
171
     0
290
     0
174
     0
 93
        1
 44
0.0
173
     0
291
     0
 45
0.0
1001
ACAD
1000
AcDbSavedByObjectVersion
1070
     0
  0
VISUALSTYLE
  5
FC
102
{ACAD_XDICTIONARY
360
1203A
102
}
102
{ACAD_REACTORS
330
EF
102
}
330
EF
100
AcDbVisualStyle
  2
Thicken
 70
    13
 71
     2
 72
     2
 73
     1
 90
        0
 40
-0.6
 41
-30.0
 62
     5
 63
     7
 74
     1
 91
        4
 64
     7
 65
   257
 75
     1
175
     1
 42
1.0
 92
       12
 66
     7
 43
1.0
 76
     1
 77
     6
 78
     2
 67
     7
 79
     5
170
     0
171
     0
290
     0
174
     0
 93
        1
 44
0.0
173
     0
291
     1
 45
0.0
1001
ACAD
1000
AcDbSavedByObjectVersion
1070
     0
  0
VISUALSTYLE
  5
F6
102
{ACAD_XDICTIONARY
360
1202E
102
}
102
{ACAD_REACTORS
330
EF
102
}
330
EF
100
AcDbVisualStyle
  2
Wireframe
 70
     5
 71
     0
 72
     2
 73
     0
 90
        0
 40
-0.6
 41
-30.0
 62
     5
 63
     7
 74
     1
 91
        4
 64
     7
 65
   257
 75
     1
175
     1
 42
1.0
 92
        0
 66
   257
 43
1.0
 76
     1
 77
     6
 78
     2
 67
     7
 79
     3
170
     0
171
     0
290
     0
174
     0
 93
        1
 44
0.0
173
     0
291
     0
 45
0.0
1001
ACAD
1000
AcDbSavedByObjectVersion
1070
     0
  0
VISUALSTYLE
  5
1F1
102
{ACAD_XDICTIONARY
360
1204E
102
}
102
{ACAD_REACTORS
330
EF
102
}
330
EF
100
AcDbVisualStyle
  2
X-Ray
 70
    25
 71
     2
 72
     2
 73
     1
 90
        1
 40
0.5
 41
-30.0
 62
     5
 63
     7
 74
     1
 91
        0
 64
     7
 65
   257
 75
     1
175
     1
 42
1.0
 92
        8
 66
     7
 43
1.0
 76
     1
 77
     6
 78
     2
 67
     7
 79
     3
170
     0
171
     0
290
     0
174
     0
 93
       13
 44
0.0
173
     0
291
     0
 45
0.0
1001
ACAD
1000
AcDbSavedByObjectVersion
1070
     0
  0
DICTIONARYVAR
  5
146
102
{ACAD_REACTORS
330
5E
102
}
330
5E
100
DictionaryVariables
280
     0
  1
1:1
  0
DICTIONARYVAR
  5
259
102
{ACAD_REACTORS
330
5E
102
}
330
5E
100
DictionaryVariables
280
     0
  1
3.500000
  0
DICTIONARYVAR
  5
25A
102
{ACAD_REACTORS
330
5E
102
}
330
5E
100
DictionaryVariables
280
     0
  1
acadiso.lin
  0
DICTIONARYVAR
  5
145
102
{ACAD_REACTORS
330
5E
102
}
330
5E
100
DictionaryVariables
280
     0
  1
STANDARD
  0
DICTIONARYVAR
  5
84
102
{ACAD_REACTORS
330
5E
102
}
330
5E
100
DictionaryVariables
280
     0
  1
STANDARD
  0
DICTIONARYVAR
  5
227
102
{ACAD_REACTORS
330
5E
102
}
330
5E
100
DictionaryVariables
280
     0
  1
Metric50
  0
DICTIONARYVAR
  5
228
102
{ACAD_REACTORS
330
5E
102
}
330
5E
100
DictionaryVariables
280
     0
  1
Metric50
  0
DICTIONARYVAR
  5
5F
102
{ACAD_REACTORS
330
5E
102
}
330
5E
100
DictionaryVariables
280
     0
  1
2
  0
DICTIONARYVAR
  5
63
102
{ACAD_REACTORS
330
5E
102
}
330
5E
100
DictionaryVariables
280
     0
  1
1
  0
DICTIONARYVAR
  5
11FC3
102
{ACAD_REACTORS
330
5E
102
}
330
5E
100
DictionaryVariables
280
     0
  1
0
  0
DICTIONARYVAR
  5
1AE
102
{ACAD_REACTORS
330
5E
102
}
330
5E
100
DictionaryVariables
280
     0
  1
0
  0
DICTIONARYVAR
  5
1AF
102
{ACAD_REACTORS
330
5E
102
}
330
5E
100
DictionaryVariables
280
     0
  1
0
  0
DICTIONARYVAR
  5
11FC1
102
{ACAD_REACTORS
330
5E
102
}
330
5E
100
DictionaryVariables
280
     0
  1
2
  0
DICTIONARYVAR
  5
11FC0
102
{ACAD_REACTORS
330
5E
102
}
330
5E
100
DictionaryVariables
280
     0
  1
1
  0
DICTIONARYVAR
  5
12013
102
{ACAD_REACTORS
330
5E
102
}
330
5E
100
DictionaryVariables
280
     0
  1
80.000000
  0
DICTIONARYVAR
  5
12012
102
{ACAD_REACTORS
330
5E
102
}
330
5E
100
DictionaryVariables
280
     0
  1
5.000000
  0
DICTIONARYVAR
  5
11FC2
102
{ACAD_REACTORS
330
5E
102
}
330
5E
100
DictionaryVariables
280
     0
  1
127
  0
DICTIONARYVAR
  5
12014
102
{ACAD_REACTORS
330
5E
102
}
330
5E
100
DictionaryVariables
280
     0
  1
2
  0
DICTIONARY
  5
12056
330
21C
100
AcDbDictionary
280
     1
281
     1
  3
ACAD_XREC_ROUNDTRIP
360
12057
  0
DICTIONARY
  5
1201B
330
D3
100
AcDbDictionary
280
     1
281
     1
  3
ACAD_XREC_ROUNDTRIP
360
1201C
  0
DICTIONARY
  5
1201D
330
D7
100
AcDbDictionary
280
     1
281
     1
  3
ACAD_XREC_ROUNDTRIP
360
1201E
  0
DICTIONARY
  5
12018
330
22
100
AcDbDictionary
280
     1
281
     1
  3
ACAD_XREC_ROUNDTRIP
360
12019
  0
DICTIONARY
  5
1F9
330
ED
100
AcDbDictionary
280
     1
281
     1
  3
ACAD_XREC_ROUNDTRIP
360
12020
  3
FBXASSET
360
1FA
  0
DICTIONARY
  5
1F7
330
EC
100
AcDbDictionary
280
     1
281
     1
  3
ACAD_XREC_ROUNDTRIP
360
1201F
  3
FBXASSET
360
1F8
  0
DICTIONARY
  5
173
330
EE
100
AcDbDictionary
280
     1
281
     1
  3
ACAD_XREC_ROUNDTRIP
360
12021
  3
BUMPTILE
360
175
  3
DIFFUSETILE
360
174
  3
FBXASSET
360
1FB
  3
OPACITYTILE
360
176
  3
REFLECTIONTILE
360
177
  0
DICTIONARY
  5
12042
330
12E
100
AcDbDictionary
280
     1
281
     1
  3
ACAD_XREC_ROUNDTRIP
360
12043
  0
DICTIONARY
  5
12054
330
21A
100
AcDbDictionary
280
     1
281
     1
  3
ACAD_XREC_ROUNDTRIP
360
12055
  0
DICTIONARY
  5
162
330
7F
100
AcDbDictionary
280
     1
281
     1
  3
ACAD_ROUNDTRIP_2008_TABLESTYLE_CELLSTYLEMAP
360
12015
  3
ACAD_XREC_ROUNDTRIP
360
1201A
  0
DICTIONARY
  5
1202C
330
F5
100
AcDbDictionary
280
     1
281
     1
  3
ACAD_XREC_ROUNDTRIP
360
1202D
  0
DICTIONARY
  5
1202A
330
F4
100
AcDbDictionary
280
     1
281
     1
  3
ACAD_XREC_ROUNDTRIP
360
1202B
  0
DICTIONARY
  5
12038
330
FB
100
AcDbDictionary
280
     1
281
     1
  3
ACAD_XREC_ROUNDTRIP
360
12039
  0
DICTIONARY
  5
12040
330
FF
100
AcDbDictionary
280
     1
281
     1
  3
ACAD_XREC_ROUNDTRIP
360
12041
  0
DICTIONARY
  5
12032
330
F8
100
AcDbDictionary
280
     1
281
     1
  3
ACAD_XREC_ROUNDTRIP
360
12033
  0
DICTIONARY
  5
12036
330
FA
100
AcDbDictionary
280
     1
281
     1
  3
ACAD_XREC_ROUNDTRIP
360
12037
  0
DICTIONARY
  5
12048
330
1E6
100
AcDbDictionary
280
     1
281
     1
  3
ACAD_XREC_ROUNDTRIP
360
12049
  0
DICTIONARY
  5
1203E
330
FE
100
AcDbDictionary
280
     1
281
     1
  3
ACAD_XREC_ROUNDTRIP
360
1203F
  0
DICTIONARY
  5
12022
330
F0
100
AcDbDictionary
280
     1
281
     1
  3
ACAD_XREC_ROUNDTRIP
360
12023
  0
DICTIONARY
  5
12024
330
F1
100
AcDbDictionary
280
     1
281
     1
  3
ACAD_XREC_ROUNDTRIP
360
12025
  0
DICTIONARY
  5
12026
330
F2
100
AcDbDictionary
280
     1
281
     1
  3
ACAD_XREC_ROUNDTRIP
360
12027
  0
DICTIONARY
  5
12028
330
F3
100
AcDbDictionary
280
     1
281
     1
  3
ACAD_XREC_ROUNDTRIP
360
12029
  0
DICTIONARY
  5
12030
330
F7
100
AcDbDictionary
280
     1
281
     1
  3
ACAD_XREC_ROUNDTRIP
360
12031
  0
DICTIONARY
  5
12044
330
1E4
100
AcDbDictionary
280
     1
281
     1
  3
ACAD_XREC_ROUNDTRIP
360
12045
  0
DICTIONARY
  5
1203C
330
FD
100
AcDbDictionary
280
     1
281
     1
  3
ACAD_XREC_ROUNDTRIP
360
1203D
  0
DICTIONARY
  5
12046
330
1E5
100
AcDbDictionary
280
     1
281
     1
  3
ACAD_XREC_ROUNDTRIP
360
12047
  0
DICTIONARY
  5
12034
330
F9
100
AcDbDictionary
280
     1
281
     1
  3
ACAD_XREC_ROUNDTRIP
360
12035
  0
DICTIONARY
  5
12052
330
1F3
100
AcDbDictionary
280
     1
281
     1
  3
ACAD_XREC_ROUNDTRIP
360
12053
  0
DICTIONARY
  5
12050
330
1F2
100
AcDbDictionary
280
     1
281
     1
  3
ACAD_XREC_ROUNDTRIP
360
12051
  0
DICTIONARY
  5
1204A
330
1EF
100
AcDbDictionary
280
     1
281
     1
  3
ACAD_XREC_ROUNDTRIP
360
1204B
  0
DICTIONARY
  5
1204C
330
1F0
100
AcDbDictionary
280
     1
281
     1
  3
ACAD_XREC_ROUNDTRIP
360
1204D
  0
DICTIONARY
  5
1203A
330
FC
100
AcDbDictionary
280
     1
281
     1
  3
ACAD_XREC_ROUNDTRIP
360
1203B
  0
DICTIONARY
  5
1202E
330
F6
100
AcDbDictionary
280
     1
281
     1
  3
ACAD_XREC_ROUNDTRIP
360
1202F
  0
DICTIONARY
  5
1204E
330
1F1
100
AcDbDictionary
280
     1
281
     1
  3
ACAD_XREC_ROUNDTRIP
360
1204F
  0
XRECORD
  5
12057
102
{ACAD_REACTORS
330
12056
102
}
330
12056
100
AcDbXrecord
280
     1
102
DISPLAYNAME
  1
Metric50
102
FLAGS
 90
        0
  0
XRECORD
  5
1201C
102
{ACAD_REACTORS
330
1201B
102
}
330
1201B
100
AcDbXrecord
280
     1
102
SHADEPLOT
 70
     0
102
SHADEPLOTRESLEVEL
 70
     2
102
SHADEPLOTCUSTOMDPI
 70
   300
  0
XRECORD
  5
1201E
102
{ACAD_REACTORS
330
1201D
102
}
330
1201D
100
AcDbXrecord
280
     1
102
SHADEPLOT
 70
     0
102
SHADEPLOTRESLEVEL
 70
     2
102
SHADEPLOTCUSTOMDPI
 70
   300
  0
XRECORD
  5
12019
102
{ACAD_REACTORS
330
12018
102
}
330
12018
100
AcDbXrecord
280
     1
102
SHADEPLOT
 70
     0
102
SHADEPLOTRESLEVEL
 70
     2
102
SHADEPLOTCUSTOMDPI
 70
   300
  0
XRECORD
  5
12020
102
{ACAD_REACTORS
330
1F9
102
}
330
1F9
100
AcDbXrecord
280
     1
102
MATERIAL
148
0.0
149
0.0
149
0.0
 93
        0
 94
       63
282
     0
 72
     1
 77
     1
171
     1
175
     1
179
     1
273
     0
  0
XRECORD
  5
1FA
102
{ACAD_REACTORS
330
1F9
102
}
330
1F9
100
AcDbXrecord
280
     1
 70
     1
 90
429727718
  1
D62C5603-E3A1-4AEA-B7FB-FE5D8D0755AF
310
504B03040A0000080000CC70623B3DEE336E79000000790000001B0000006175746F6465736B2D64657369676E2D7061636B6167652E786D6C3C3F786D6C2076657273696F6E3D22312E302220656E636F64696E673D227574662D3822203F3E3C666F726D6174733E3C666F726D61743E687474703A2F2F736368656D612E
310
6175746F6465736B2E636F6D2F64657369676E2D7061636B6167652F323030393C2F666F726D61743E3C2F666F726D6174733E504B0304140006080800CC70623BD486FD9CA0000000F4000000130000005B436F6E74656E745F54797065735D2E786D6C7D8EC10E82300C865F65E91D8A1E8C310C0EEA1BF002731658846E
310
D98AC1B77784ABF1D8FE5FBFBF75BBCE937A534CCEB38643598122B6FEE978D0B0485F9C41B54DDD7D022595594E1A469170414C76A4D9A4D207E29CF43ECE46F218070CC6BECC4078ACAA135ACF422C856C0E68EA1BF5669944DDD7BCDE7B1F8E415D77AECB980613C2E4AC91FC167A2B244592486606FC29C8FD7F045B9A
310
EF7053A7E60B504B0304140006080800CC70623B853B8169EB0000007C01000008000000636F72652E786D6C8D90416EC3201045AF62CDB6C206821CC7C244919D9CA01740401C94182C03558F5F9C3852BBEB6A467FFE9B197D7EFC9E1EC5975982F5AE035262288C535E5B377690E21535501C055FBC8FBF6C503839990E
310
5619041F179FE64D52DE45E362569DD7661365082642A11EB9E920A89B99642953CC8E702F67A9EE7234257977194EC9EAE275C4EABCCF5EAD5940D4AC6F0E35A568B8F43562CD7046CD199FD07E60174276A7BE677B5EADB0E0D14EEFFB6A31321A0D82627C4084204C3F096B71DD52F6819B16635EADF63F509AF53FA164
310
5DDCD1EDDD17164090FCC8732078B56691CB33A85CD7DCC40F504B0304140006080800CC70623B55019EA25F0000007C00000007000000636E782E786D6C4DCB3B0E80201045D1AD90E915ED2CF8AC45050C11660C8261F98AB1B07AC9C97D42D718D865D3E909258CFD00CCE24AC6E326A164D74DC0B4128928FF32603847
310
2BA13128B1252AC747C6BAB984FC68F0B87FE8960A5C09FE86CFB69FBA01504B0304140006080800CC70623BDBABAAF470010000D40300000C0000006662782F636F72652E786D6CC553D16E823014FD95A6AF4B694182CC941A83FA05FB810A9511A125A5257EFE2E82712ECEB8A7F100CD39F7F69E734AF9FADC366850B6
310
AF8DCE7018308C942E4C59EB2AC3DE1D498AD15A706B8CFB56869196ADCAF00863C12B6B7C374385D14E6907A836A59A41D9F7CA615434B0C8705F7CAA5606D23BA8E84F41278B93AC54100640439DE0BDB320004D43C63716C7C399D30917DCFBBA9CD9BA8469F5B156168B24CED3F7248AC8769F27244EB73B92EED8862C
310
B7F13E0C179B3C8F979C8ECD82BBBABDAA2BAC924E9558448CBD9330242CFA08E3154B5651FCC6D215639C8EE5774DBE2B5F6CF2B5768B68963BB5F5588420E442FC700B1139D4CB01F450C1E918227C2E09DF070D8140C84E1E9AAB8F1340832A9CB13130A5F1376A908D57309505ECF2A0DF179C4E9D30F5B239B87E3823
310
7A79C6F31DE1A8A5AEC08474B03C7837EAE4938639B44E5932B833D2C6B6B279CDC613877FA26EE21F4A2A4C63EC7F29A2F301D1F9F7A0E37D145F504B0304140006080800CC70623B9C113CC27E0000009D0000000B0000006662782F636E782E786D6C4DCCDF0A83201C86E15B91DFB94BFB330DD428C8FB886521330DA7
310
6397BF1A1DECE883878F57749FCDA1B7892F1BBC047A23808C7F84D9FA55424E0BE6803A256208E9EF06C84F9B91703228B1C690F78B66B34CD9A5439DF5CF0BFBF65E35BCA1B8D6A5C6F540381E886698B5741C695F9503EBA150A2F8958E3DC3EA0B504B0304140006080800CC70623B7DF2F77C2A010000120200003100
310
00006662782F41393633353835312D344632462D344230382D423046372D3739314545314133324237412F636F72652E786D6C8D51DB8EC22014FC15C2939B0D2DB4B45643319AE817EC0F6041255A68B86CFCFC856D4D76DF7CE190393373060EDB3DC707F856CE6B6B7A480A0C81328395DA5C7B18C3057510EC3873D686
310
3F34088C18550F330C39BB3A1BA7051AAC09CA84841A2BD5020AEF55806078A44B0FFD7053A328440C89E1EFC52486BBB8AA8214A99D789CF9E05200300FC927E4FB4D5B375D43103D5527440FB843077C5AA3F5861C8F645F5787F59E95B390B318B55CE45AA638FAA2957BD7248B390B7A7CC51F9C124149C82B8C378810
310
84AB2F42B7B8DD56F413775B8C5999E9FF4471926F8AA236A1AE96B8B3CC434E5839373893369E1FAF30EA395917409EB7F26AF8801C171837A4A6AC9C89E9F9C9B1A58BA30FD6A5EF5DDDCF894B9AD9B6A59C957943A9FCAE2FD5BC4DFE03504B0304140006080800CC70623BAD7543B64E01000033030000300000006662
310
782F41393633353835312D344632462D344230382D423046372D3739314545314133324237412F636E782E786D6CD593CD6EC32010845F0571AD6CE3D48AD20813A9873E410FBD12D82434182C7EAAE6EDBB2424CD25871E7B41D6EC30B3FA84F9E67BB2E40B4234DE8DB46F1925E094D7C6ED479AD3AE5951B2113C789FEE
310
6C943839C1488B4C05DF079FE72A69D8C96C13AAD6B8631503449F83828872B949AC57D26200B826A308D316B4064D6E46FCDA41C05550DC9E483A00797BFD207EFB092A45DE9514C1BBD22178396BD39D891265658C238DEA00936C654E5E433CB65A26D9F6EDB5EBC14EBF49A45CB856E66048291F6939A9A81BB5C89177
310
38143CA680F4AA299D66A042CEB3354A2684DC9D8D178FE0D9B8B41CAAD720F880EE7EF93C0C18769E099ECC04D5A102C8049A8A05632F4DDF376CF1DE0F6BB65C2F8627B65A33C6BB62177CEBBDAD973006829F89F22E814B54F4BC2BE347F8AA8F681390B50FA73F804400B5F542E796F19FF974E7F78DB802FE05E20750
310
4B0304140006080800CC70623BE75B7789680500003C100000340000006662782F41393633353835312D344632462D344230382D423046372D3739314545314133324237412F6F626A656374732E786D6CAD575B8F9B3818FD2B887D06C22499CB8AA1CA655245D5B455A356FB305264C061D8018C6C3393D95FBFC7600890
310
A4CD5EF210B0B1BFEBF98E3F7B1FF6596ABC522E1296DF9BAE3D320D9A872C4AF2F8DE2CE5CEBA358D0FBEC719939D65A691938CDE9B6ADAF4BD98B3B2D05311DD91329583D9D5FC0F438434A7A611A644887B5384CF34233629258BA878B12322891DEFF6B66BD70BFB62634E8AE781D082709A4B588AF91C528CDA28B73F
310
1C998EEF39EABBEFA97FBD6A7C7E9553F9D3D79FE442923C3C523610337627CB87ABE99D359D4CC6D6E4FACAB5E6ABF9D2726FC6A3C5F56271377BB88362213924694B38DD99FE47C48627A1E7D49F5A8BB5E1A74C0A599ED3B0F21F1E56366B89112D681E218F0915D0D6F17AD41FBA2A369DCF6335D62ABBD39779D5DDD1
310
11D4D8DE3CBB96B2E04FB8202E41051754A1AA8E8F76B4C6DFE810B580B1547F4B84911149794252234D024EF8BBE963A95AE27B3D310A9D5C215C7960FAEE415ED75694C6AFB17BCACA5D99A60A9AA65F217B0BFC53292ACB92BF283FAD0D3621576592CB5BED907C2FA8E9DF794E35E97BEA31BED21FEB401ABB94C44839
310
DCACBF0E1C5DA8DA5B2F4DFFD32AD86F543D9E565E7056502E157C00AD2671CD534549AB752FCA9CDA00677A313F04E51B22FF19E57B300579E3C97EB29F682D92935CEC18CF901B7B54FD8C51F362B56FC72FE0B3C1EAE335EDCCBF5AEC39ADB17DC238973F804BA5E6F6BFE7AF1FB32E523BE9F3BD571418E3631DCA4D48
310
5250CF639223210A9446CA30052EDF057BD35F8329C1ECD84552BF0DC8D18BE7BCE23BFE6BD960AB4A7DE79923A103BEBD80F911CBAA2C60DB19B01CF164A5583B772EE6D3FFA56666CBCDA74DC97724A48F9A58967497E489C4D979006FD7A05E227A1EBDD0F737C623387A9C844D3709995625106D157315F8B8392CD4E0
310
A0B9A720C4BE9829CEF37EA1E13111214D53925356365ADA634861B52519DD27A00AEB808EAF0628E6F435519D446F45CF2C9CF5214F0A15B2F6D06B79DA3EE3CBF7F56780D2F4E7EF73A0F5E5B02A38D07DC852C6B7C1FBB6664213E0C39E3EBA7FF4E1AD23EA2829407C85E586727488B751B2DB9502BC7B228A3FD68B6E
310
A65A22397E690AA8D158D7E404EC8CDA235CC3B7D1898680131CEC2CDF2638C65196279577750F15884AEE19F94199155B92B13297978469D4F8D358DF0AEF7631E28DC8F0D9F437D5D39A83B2231A1D52D543813A824EF8D44BCFF2FA6A31BD1E8DAD87F1CCB526B3879935BF59CDADD5C37479BB1CDD4CA7B3556B516589
310
EF352754B706114D9C885EC9131DE6EFEB43D99AFE2391C2F958179413D7CFEF6B1B6DB1E7600F00DE6E5C67454A339A4BA2E0FBA85ED26F045D454F463DBFCE484C2F90F2E5E3666003662ED8F755951A7D1BECD5B30B550B2785C8E7320B7292A4838DDA71BBC863ED7613CAF659337A3354231D4FF4A182A54904C2898C
310
98B28C4AD0CE056CCF332A80986E571EE9DBC305BB5FEB7E509220A58D25CF042D712A806AC0AD0C657FDEF80D2D9CEAA2EE4D1C76F60BFE74219A06527D6F82DF6412526107381E55E353090704D085B52408A8913C4ED159D79BDA71BB4BC506F4831350EB6F975CD22D69BF7AC49B91A2C0A9DDA3D5CA36AD20FC478E37
310
E61844E2352865EBCB61A275A65283CAAA9DD27703B4102F5AF51EF5F573B75CBB5AD38BC845F7A49F82A0966A49C2E3EA5EA0ECD326CD965F1DB402C6FA8B51A4658C5C5E2EC9E214602E55810345408596591009A82E7E7FFACA19EEA299B14A0081A705CB3296EBC14CDF658DCD336EA6D1136881AAEB87B81AB9EE53D5
310
F5EB8BC8362082DA24122F98680A4E7930C01A0079749CEA14382A0783E5EBA5A10F8C098456A03D6A4AEB6BB881E2513747552A5DB22C7EDAF83BD5528081A365F7FF06504B0304140006080000CC70623B000000000000000000000000350000006662782F41393633353835312D344632462D344230382D423046372D37
310
39314545314133324237412F76657274696365732E62696E504B0304140006080800CC70623BF270F1330600000004000000360000006662782F41393633353835312D344632462D344230382D423046372D3739314545314133324237412F747269616E676C65732E62696E636660600000504B0304140006080000CC7062
310
3B000000000000000000000000370000006662782F41393633353835312D344632462D344230382D423046372D3739314545314133324237412F617474726962757465732E62696E504B0304140006080800CC70623B08DA0BD19000000041010000360000006662782F41393633353835312D344632462D344230382D4230
310
46372D3739314545314133324237412F6469726563746F72792E786D6C858F410AC3201045AF22B36F53E9A60B35CBEEBAE80D244E44489C6234F4F835464A48035D0DF398FF9F8AF63D0E6CC63039F212F8F9020C7D47C6792B21C5FE7403D62A1188E2E60C98D7234A5830286103A55745067B9D86B8A3CF9C7F90C11DE6
310
07FB144396D7B6A82D282E9A152AD114D5EF2CB866EEE831B8EEA07A7BB5A8D7D61A2BAAEB7FD5F70921FF497D00504B0304140006080800CC70623BEDD1DC58FD000000A00100003B0000006662782F41393633353835312D344632462D344230382D423046372D3739314545314133324237412F7265736F75726365732F
310
636F72652E786D6C8D504B6E833010BD0A9A6D65B00922041947112427E8052C33A156828DFCA97AFC9A40A576D7CDCCE87D344F8F9FBFE667F689CE6B6B3A6039850C8DB2A336530731DC4903D95970676DF82583CCC8193B5861107C72362E3BA4AC096842428D1D7107A5F7182053CF7474E0D507CE32973124857FE48B
310
540F3961CEF244279DE03EB81420DB9EAC1384436FA353E879B1B182C7A8C75DA3C7F453DF353A1075D537A7BA6464B8F535A99AE14A9A2BBD90E350DD183B5CFABE3AF262350B1EF4FC9351399401471025A527C218A1E53BAB5A5AB765F5469B96525EACF23FA6B88CFF34456DC2A1DCE36E360F82A5202F42F062ED2BAD
310
579969AFDD8A6F504B010214000A0000080000CC70623B3DEE336E79000000790000001B00000000000000000000000000000000006175746F6465736B2D64657369676E2D7061636B6167652E786D6C504B01021400140006080800CC70623BD486FD9CA0000000F40000001300000000000000000000000000B20000005B
310
436F6E74656E745F54797065735D2E786D6C504B01021400140006080800CC70623B853B8169EB0000007C010000080000000000000000000000000083010000636F72652E786D6C504B01021400140006080800CC70623B55019EA25F0000007C000000070000000000000000000000000094020000636E782E786D6C504B
310
01021400140006080800CC70623BDBABAAF470010000D40300000C00000000000000000000000000180300006662782F636F72652E786D6C504B01021400140006080800CC70623B9C113CC27E0000009D0000000B00000000000000000000000000B20400006662782F636E782E786D6C504B01021400140006080800CC70
310
623B7DF2F77C2A010000120200003100000000000000000000000000590500006662782F41393633353835312D344632462D344230382D423046372D3739314545314133324237412F636F72652E786D6C504B01021400140006080800CC70623BAD7543B64E010000330300003000000000000000000000000000D2060000
310
6662782F41393633353835312D344632462D344230382D423046372D3739314545314133324237412F636E782E786D6C504B01021400140006080800CC70623BE75B7789680500003C10000034000000000000000000000000006E0800006662782F41393633353835312D344632462D344230382D423046372D3739314545
310
314133324237412F6F626A656374732E786D6C504B01021400140006080000CC70623B0000000000000000000000003500000000000000000000000000280E00006662782F41393633353835312D344632462D344230382D423046372D3739314545314133324237412F76657274696365732E62696E504B01021400140006
310
080800CC70623BF270F133060000000400000036000000000000000000000000007B0E00006662782F41393633353835312D344632462D344230382D423046372D3739314545314133324237412F747269616E676C65732E62696E504B01021400140006080000CC70623B0000000000000000000000003700000000000000
310
000000000000D50E00006662782F41393633353835312D344632462D344230382D423046372D3739314545314133324237412F617474726962757465732E62696E504B01021400140006080800CC70623B08DA0BD1900000004101000036000000000000000000000000002A0F00006662782F41393633353835312D344632
310
462D344230382D423046372D3739314545314133324237412F6469726563746F72792E786D6C504B01021400140006080800CC70623BEDD1DC58FD000000A00100003B000000000000000000000000000E1000006662782F41393633353835312D344632462D344230382D423046372D3739314545314133324237412F7265
310
736F75726365732F636F72652E786D6C504B0506000000000E000E0080040000641100000000
  0
XRECORD
  5
1201F
102
{ACAD_REACTORS
330
1F7
102
}
330
1F7
100
AcDbXrecord
280
     1
102
MATERIAL
148
0.0
149
0.0
149
0.0
 93
        0
 94
       63
282
     0
 72
     1
 77
     1
171
     1
175
     1
179
     1
273
     0
  0
XRECORD
  5
1F8
102
{ACAD_REACTORS
330
1F7
102
}
330
1F7
100
AcDbXrecord
280
     1
 70
     1
 90
429727718
  1
30362254-06B7-45E0-A893-8CFA70E3D6BC
310
504B03040A0000080000CC70623B3DEE336E79000000790000001B0000006175746F6465736B2D64657369676E2D7061636B6167652E786D6C3C3F786D6C2076657273696F6E3D22312E302220656E636F64696E673D227574662D3822203F3E3C666F726D6174733E3C666F726D61743E687474703A2F2F736368656D612E
310
6175746F6465736B2E636F6D2F64657369676E2D7061636B6167652F323030393C2F666F726D61743E3C2F666F726D6174733E504B0304140006080800CC70623BD486FD9CA0000000F4000000130000005B436F6E74656E745F54797065735D2E786D6C7D8EC10E82300C865F65E91D8A1E8C310C0EEA1BF002731658846E
310
D98AC1B77784ABF1D8FE5FBFBF75BBCE937A534CCEB38643598122B6FEE978D0B0485F9C41B54DDD7D022595594E1A469170414C76A4D9A4D207E29CF43ECE46F218070CC6BECC4078ACAA135ACF422C856C0E68EA1BF5669944DDD7BCDE7B1F8E415D77AECB980613C2E4AC91FC167A2B244592486606FC29C8FD7F045B9A
310
EF7053A7E60B504B0304140006080800CC70623B1EC5D7A3EB0000007C01000008000000636F72652E786D6C8D90416EC3201045AF82665B6103C6756C6122AB4D4ED00B204C5C94182C03558F5F9C3852BBEB6A467FFE9B197D71FC9E6FE8CBACC17AD7032D0820E3B41FAD9B7A48F1820F808E52ACDEC75F36404ECDA687
310
4D0629A6D5A76597B477D1B89855E747B38B2A041301E95B6E7A08FAD3CCAA50296647B8168BD2573599823EBB0CA76447F43862C7BCCF5EAC59410E4DDD9C7973C2755553CCCFA4C603E3040F1565ED3B1FDE4E432BCA0D9622DAF9795FAF464533826484B498524CD807E51D79ED187F21878E10516EF63F505AC67F42C9
310
BA58B1FDDD071640D2FCC87D2045B96591CB3DA85CB7DCE40F504B0304140006080800CC70623B55019EA25F0000007C00000007000000636E782E786D6C4DCB3B0E80201045D1AD90E915ED2CF8AC45050C11660C8261F98AB1B07AC9C97D42D718D865D3E909258CFD00CCE24AC6E326A164D74DC0B4128928FF32603847
310
2BA13128B1252AC747C6BAB984FC68F0B87FE8960A5C09FE86CFB69FBA01504B0304140006080800CC70623B8C9102E971010000D40300000C0000006662782F636F72652E786D6CC5535B6E833010BC8AE5DF0A6C08340F1947A84D4ED00B38C6A128602363A31CBFCB234A53A551FA553EC09AD9F5CE8C31DB9E9B1AF5CA
310
7695D1198E428A91D2D214952E33ECDD315861B4E5CC1AE3BE9561A445A3323CC098B3D21ADFCE9034DA29ED00D5A6503328BA4E398C640D8B0C77F253352214DE4145770A5B214FA2546114020D759C75CE8200340D19DE981F0F6746269C33EFAB6266AB02A655C74A59CCF365BADC27CB5D902ED22848F6340DF238A141
310
BE88E2F57B92BFEDF23523433367AE6A2EEAA455C2A902F398D2751045018D3FA264435F3771F242571B4A1919CA6F9A7C5B3CD9E42BED16F12C776AEB308F40C848FC700B1139D4891EF410CEC810227CC6846F8386402064270EF5C5C709A05E49676C024C61FC95EA45ED154CA5211D1FF4FB8291A913A68E9B83EBBB33
310
E2A7673CDE118E5AE8124C0807CB8377834E366998436B950D7A7746DAD846D4CFD978E0F04FD455FC5D49D2D4C6FE9722321F10997F0F32DC47FE05504B0304140006080800CC70623BFFEA85907E0000009D0000000B0000006662782F636E782E786D6C4DCCD10A83201886E15B91FFDC95D95A811AB6F23E625948A6C3
310
E9D8E5AF46073BFAE0E1E365ED67B3E8ADC3CB78C7815C7240DA3DFC64DCC221C519D7805AC182F7F1EF06C88D9BE6703008B6049F9E274D7A1E938DBB5AE3D6131B2589BA0D3D965551E0B2EA732C9B9A624AAEB41E3A557677029960D9AFB4EF11165F504B0304140006080800CC70623B4FEEA4082C0100001202000031
310
0000006662782F39464131463745442D413632322D343644302D413938332D3331353338454246344243312F636F72652E786D6C8D515B6EC32010BC0AE2AB55850DD871ED0813254D72825EC00192A2C460F1A872FC42ED48ED5F7E00CDCECCCEB26C731F6FE05B39AFADE921293004CA082BB5B9F43086336A21D870E6AC
310
0D7F68109861543DCC30E4ECE26C9C164858139409093556AA051CBC570102714B8F1E7AF1A5C6A11862480C7F2DA6415C878B2A4891CA89C7990F2E050073937C42DE1DB7E4F87ED8A36D4329AA9B3D46DBAEAD504556557BD81DEBDD0761E52CE42C462D17B996298E3E6BE59E35C962CE821E1FF18553435012728A7187
310
0841987E927A8D9B35ADDF70BBC6989599FE4F1427F9A4286A132ABAC49D651EF234CD5CE04CDA78BA3DC2A8FB645D00B9DF8B57E215725C60BCA2A463E54C4CE327C7A65E1C7DB02E7DEFCBF594B864C5CA6CDBD49C957943E9FA5D5FBAF336F90F504B0304140006080800CC70623BAD7543B64E01000033030000300000
310
006662782F39464131463745442D413632322D343644302D413938332D3331353338454246344243312F636E782E786D6CD593CD6EC32010845F0571AD6CE3D48AD20813A9873E410FBD12D82434182C7EAAE6EDBB2424CD25871E7B41D6EC30B3FA84F9E67BB2E40B4234DE8DB46F1925E094D7C6ED479AD3AE5951B2113C
310
789FEE6C943839C1488B4C05DF079FE72A69D8C96C13AAD6B8631503449F83828872B949AC57D26200B826A308D316B4064D6E46FCDA41C05550DC9E483A00797BFD207EFB092A45DE9514C1BBD22178396BD39D891265658C238DEA00936C654E5E433CB65A26D9F6EDB5EBC14EBF49A45CB856E66048291F6939A9A81BB5
310
C8917738143CA680F4AA299D66A042CEB3354A2684DC9D8D178FE0D9B8B41CAAD720F880EE7EF93C0C18769E099ECC04D5A102C8049A8A05632F4DDF376CF1DE0F6BB65C2F8627B65A33C6BB62177CEBBDAD973006829F89F22E814B54F4BC2BE347F8AA8F681390B50FA73F804400B5F542E796F19FF974E7F78DB802FE05
310
E207504B0304140006080800CC70623B16AB87BA640500003C100000340000006662782F39464131463745442D413632322D343644302D413938332D3331353338454246344243312F6F626A656374732E786D6CAD575B6FA33818FD2B887DE6924B3BED8A326A92B68A663B534DD4D13E548A0C38942D60649B369D5FBFC7
310
600890A493BDE42160637FD7F31D7FF63E6FB3D478A55C242CBF3247B66B1A340F5994E4F19559CA8D75611A9F7D8F33263BCB4C232719BD32D5B4E97B316765A1A722BA21652A07B3B7B33F0D11D29C9A46981221AE4C113ED38CD8A4942CA2E2C58E882476BCD9DA23BB5ED8171B73523C0F841684D35CC252CCE79062D4
310
468DFA43D7747CCF51DF7D4FFDEB5593E3AB9CCA9FBEFE241792E4E19EB28198C968BAB8199F5D5A67D3E9C49A9E8F47D6EC76B6B0469F26EEFC7C3EBFBCBEB98462213924694B38DD98FE1D62C393D073EA4FADC5DAF04326852CCF6958F90F0F2B9BB5C48816348F90C7840A68EB78EDF68723159BCEE7891A6B95DDE9D3
310
BCEAEEE8086A6C6F9E5D4B59F0175C10A7A0820BAA5055C7473B5AE3CFDD452D602CD5DF12616444529E90D448938013FE6EFA58AA96F85E4F8C42275708571E98FE6827AF6B2B4AE3D7D83D64E5A64C53054DD3AF90BD06FEA9149565C94FCA0F6B834DC85599E4F2423B24DF0B6AFA979E534DFA9E7A4CC6FA631D486393
310
921829879BF5D781A373557BCB85E97FB90DB62B558F8795179C15944B051F40AB495CF35451D26A4727654E6D8033BD98EF82F21D91FF8AF2DD9982BCF1643BDD4EB516C9492E368C67C88DED563FC36D5EACF66DFF057C3658BDBFA69DF9578B3DA735B64F18C7F20770A9D45CFCF7FCF563D6456A277DBEF78A02637CA2
310
43B90A490AEAB94F72244481D24819A6C0E59B606BFA4B3025981DBB48EAB701D97BF19C577CC77F2D1B6C55A9EF3C732474C0B727303F625995056C3B02963D9EAC146BE78EC5FCEC7FA999EBC5EACBAAE41B12D27B4D2C0BBA49F244E2ECDC81B76B502F113D8F5EE8FB1BE3111CDD4FC2AA9B844CAB1288B68AB90A7CDC
310
1C166AB0D3DC5310625FCC14E779BFD0709F8890A629C9292B1B2DED31A4B0DA928CEE135085754027E3018A397D4D5427D15BD1330B677DC8934285AC3DF45A9EB68FF8F2B8FC0A509AFEECFD0FF2DE25CC6047F7214B195F07EFEB9A094D800F7BFAE8FED187B78EA8A3A400F115961BCAD1215E47C966530AF0EE8128FE
310
58CEBB996A8964FFA529A046635D9353B0336A8F700DDF46271A024E70B0B37C9DE01847591E54DED53D54202AB947E4076556AC49C6CA5C9E1226B7F1A7B1BE15DEED62C41B91E1B3E9AFAAA735036547343A925075041DF0A9979E893B391F8FCFA6967B3EFB644DCF6E5CEBFAE272625DCC6FAF3FB93793C5F90CE1EF57
310
407342756B10D1C489E8953CD1617E5CEECAD6F4EF8914CE5D5D504E5C3F1F9736DA62CFC11E00BCDDB8CC8A9466349744C1F75EBDA4DF09BA8A9E8C7A7E9991989E20E5DBDD6A6003664ED8F7A04A8DBE0DF6EAD9B9AA858342E47399053949D2C146EDB85DE4B176BB0965FBAC19BD19AA918E27FA50C1D22402E144464C
310
59462568E704B6E71915404CB72B8FF4EDE184DDAF753F284990D2C6926782963815403548A70C657FDEF80D2D9CEAA2AE4C1C76F60BFE74219A06527D6582DF6412526107381E55E353090704D085B52408D0933C4ED159D79BDA71BB4BC506F4831350EB6F979CD22D69BF7AC49B91A2C0A9DDA3D5CA36AD20FC478E37E6
310
1844E2352865EBCB6EA275A652E3836BE04EFB400BF1A2556F515F1FBB35B2AB35BD889C744FFA1004B5544B121E57F70215746DD2F5E2C1412B602CBF19455AC6C8E5E9922C4E01E65215385004546899059180EAFCF7A707CE7017CD8CDB0410789AB32C63B91E5CEBBBACB17AC6CD347A022D5075FD106377347AAABA7E
310
7D11590744509B44E205134DC1290F06580320F78E537D3D73540E06CB970B431F185308AD40BBD794D6D77003C5A36E8EAA54BA64597CD8F83BD552A080A365F7FF06504B0304140006080000CC70623B000000000000000000000000350000006662782F39464131463745442D413632322D343644302D413938332D3331
310
353338454246344243312F76657274696365732E62696E504B0304140006080800CC70623BF270F1330600000004000000360000006662782F39464131463745442D413632322D343644302D413938332D3331353338454246344243312F747269616E676C65732E62696E636660600000504B0304140006080000CC70623B
310
000000000000000000000000370000006662782F39464131463745442D413632322D343644302D413938332D3331353338454246344243312F617474726962757465732E62696E504B0304140006080800CC70623B08DA0BD19000000041010000360000006662782F39464131463745442D413632322D343644302D413938
310
332D3331353338454246344243312F6469726563746F72792E786D6C858F410AC3201045AF22B36F53E9A60B35CBEEBAE80D244E44489C6234F4F835464A48035D0DF398FF9F8AF63D0E6CC63039F212F8F9020C7D47C6792B21C5FE7403D62A1188E2E60C98D7234A5830286103A55745067B9D86B8A3CF9C7F90C11DE607
310
FB144396D7B6A82D282E9A152AD114D5EF2CB866EEE831B8EEA07A7BB5A8D7D61A2BAAEB7FD5F70921FF497D00504B0304140006080800CC70623B0D6EF93BFE000000A00100003B0000006662782F39464131463745442D413632322D343644302D413938332D3331353338454246344243312F7265736F75726365732F63
310
6F72652E786D6C8D50596E833010BD0A9ADFCA60B334011947A8694ED00B586642AC041B79A97AFC9A40A5F6AF3F33A3B7689E1E3F7DCD8FEC139DD7D6F4C0720A191A65476DA61E62B892236427C19DB5E1970C322367EC618541F0C9D9B8EC90B226A009093576C41D94DE63804C3DD2D18357379C652E63480A7FCF17A9
310
EE72C29CE5894E3AC17D702940B63D59270887DE46A7D0F36263058F518FBB468FE9A7BE6A7420864373B8D4873369AA8691FA421B3294352543C5CAF65C0F6FEF43CB8BD52C78D0F34F46E550061C419494B6843142CB0F5677F4B52BEB177AEC28E5C52AFF638ACBF84F53D42654E51E77B379102C05791282176B5F693D
310
CB4C7BED567C03504B010214000A0000080000CC70623B3DEE336E79000000790000001B00000000000000000000000000000000006175746F6465736B2D64657369676E2D7061636B6167652E786D6C504B01021400140006080800CC70623BD486FD9CA0000000F40000001300000000000000000000000000B20000005B
310
436F6E74656E745F54797065735D2E786D6C504B01021400140006080800CC70623B1EC5D7A3EB0000007C010000080000000000000000000000000083010000636F72652E786D6C504B01021400140006080800CC70623B55019EA25F0000007C000000070000000000000000000000000094020000636E782E786D6C504B
310
01021400140006080800CC70623B8C9102E971010000D40300000C00000000000000000000000000180300006662782F636F72652E786D6C504B01021400140006080800CC70623BFFEA85907E0000009D0000000B00000000000000000000000000B30400006662782F636E782E786D6C504B01021400140006080800CC70
310
623B4FEEA4082C0100001202000031000000000000000000000000005A0500006662782F39464131463745442D413632322D343644302D413938332D3331353338454246344243312F636F72652E786D6C504B01021400140006080800CC70623BAD7543B64E010000330300003000000000000000000000000000D5060000
310
6662782F39464131463745442D413632322D343644302D413938332D3331353338454246344243312F636E782E786D6C504B01021400140006080800CC70623B16AB87BA640500003C1000003400000000000000000000000000710800006662782F39464131463745442D413632322D343644302D413938332D3331353338
310
454246344243312F6F626A656374732E786D6C504B01021400140006080000CC70623B0000000000000000000000003500000000000000000000000000270E00006662782F39464131463745442D413632322D343644302D413938332D3331353338454246344243312F76657274696365732E62696E504B01021400140006
310
080800CC70623BF270F133060000000400000036000000000000000000000000007A0E00006662782F39464131463745442D413632322D343644302D413938332D3331353338454246344243312F747269616E676C65732E62696E504B01021400140006080000CC70623B0000000000000000000000003700000000000000
310
000000000000D40E00006662782F39464131463745442D413632322D343644302D413938332D3331353338454246344243312F617474726962757465732E62696E504B01021400140006080800CC70623B08DA0BD190000000410100003600000000000000000000000000290F00006662782F39464131463745442D413632
310
322D343644302D413938332D3331353338454246344243312F6469726563746F72792E786D6C504B01021400140006080800CC70623B0D6EF93BFE000000A00100003B000000000000000000000000000D1000006662782F39464131463745442D413632322D343644302D413938332D3331353338454246344243312F7265
310
736F75726365732F636F72652E786D6C504B0506000000000E000E0080040000641100000000
  0
XRECORD
  5
12021
102
{ACAD_REACTORS
330
173
102
}
330
173
100
AcDbXrecord
280
     1
102
MATERIAL
148
0.0
149
0.0
149
0.0
 93
        0
 94
       63
282
     0
 72
     1
 77
     1
171
     1
175
     1
179
     1
273
     0
  0
XRECORD
  5
175
102
{ACAD_REACTORS
330
173
102
}
330
173
100
AcDbXrecord
280
     1
270
     1
271
     1
  0
XRECORD
  5
174
102
{ACAD_REACTORS
330
173
102
}
330
173
100
AcDbXrecord
280
     1
270
     1
271
     1
  0
XRECORD
  5
1FB
102
{ACAD_REACTORS
330
173
102
}
330
173
100
AcDbXrecord
280
     1
 70
     0
 90
1673772943
  1
ECE7A1D2-D628-4531-984C-D00F80459256
310
504B03040A0000080000CC70623B3DEE336E79000000790000001B0000006175746F6465736B2D64657369676E2D7061636B6167652E786D6C3C3F786D6C2076657273696F6E3D22312E302220656E636F64696E673D227574662D3822203F3E3C666F726D6174733E3C666F726D61743E687474703A2F2F736368656D612E
310
6175746F6465736B2E636F6D2F64657369676E2D7061636B6167652F323030393C2F666F726D61743E3C2F666F726D6174733E504B0304140006080800CC70623BD486FD9CA0000000F4000000130000005B436F6E74656E745F54797065735D2E786D6C7D8EC10E82300C865F65E91D8A1E8C310C0EEA1BF002731658846E
310
D98AC1B77784ABF1D8FE5FBFBF75BBCE937A534CCEB38643598122B6FEE978D0B0485F9C41B54DDD7D022595594E1A469170414C76A4D9A4D207E29CF43ECE46F218070CC6BECC4078ACAA135ACF422C856C0E68EA1BF5669944DDD7BCDE7B1F8E415D77AECB980613C2E4AC91FC167A2B244592486606FC29C8FD7F045B9A
310
EF7053A7E60B504B0304140006080800CC70623BD9DDAED0EC0000007C01000008000000636F72652E786D6C8D90416EC3201045AF82665B61836D9CD8C2444DD39CA01740405C94182C03558F5F9C3852BBEB6A467FFE9B197D7EF89E6EE8CB2CC17A37002D0820E394D7D68D03A478C17B4007C117EFE32F1B20272733C0
310
2A83E0E3E2D3BC49CABB685CCCAAF3DA6CA20CC14440EA969B0182FA34932C648AD911AEC52CD5558EA6A0CF2EC329598D1E47ACCEFBECC59A050463A7EA5833865FEBDD0E37353BE3EE8DBDE3F6786A48D375FBF6CC78B9C282473B3DEFABC5C86834888A900E538A49F5419B9EB47DD5BC907D4F082F57FB1F28CDFA9F50
310
B22ED6D5F6EE030B20687EE43E10BC5CB3C8E51E54AE6B6EE207504B0304140006080800CC70623B55019EA25F0000007C00000007000000636E782E786D6C4DCB3B0E80201045D1AD90E915ED2CF8AC45050C11660C8261F98AB1B07AC9C97D42D718D865D3E909258CFD00CCE24AC6E326A164D74DC0B4128928FF326038
310
472BA13128B1252AC747C6BAB984FC68F0B87FE8960A5C09FE86CFB69FBA01504B0304140006080800CC70623BA24EB22D72010000D40300000C0000006662782F636F72652E786D6CC5535B6E833010BC8AE5DF0A6C5E49888CA3A6694ED00B38E05014B091B1518EDFE511A5A9D228FD2A1F60CDEC7A67C6986DCE4D8D7A
310
69BA4AAB0C073EC548AA5C17952A33ECECD15B61B4E1CC686DBF9561A44423333CC098B3D268D7CE50AE9595CA02AA74216750749DB418E5352C32DCE59FB211BE70162ABA93DF8AFC244AE9073ED050C759670D0840D390E18DF9F1706664C23973AE2A66B62A605A75ACA4C13C4976E1364A12EF355A2EBD384AF65EFA96
310
BC7B8BED2EA6719AAE16FB8491A199335B351775B991C2CA02F390D2D40B028F861F41BCA68B7518BFD0D59A524686F29B26D7164F36B94AD9289CE54E6D1DE6010819891F6E21228B3AD1831EC219194284CF98F06DD01008846CC5A1BEF83801D4CBDC6A1303536877A57A513B0953A94FC707FDBE6064EA84A9E3E6E0FA
310
EE8CF0E9198F7784A316AA0413C2C2F2E0ECA0934D1AE6D05A69BCDE9E91D2A611F573361E38FC1375157F5752AE6B6DFE4B11990F88CCBF0719EE23FF02504B0304140006080800CC70623B408A7D3B7C0000009D0000000B0000006662782F636E782E786D6C4DCCD10A83201886E15B91FFDC552A92A0064DBC8F581632
310
D3703A76F9ABD1C18E3E78F878E5F0D9027ABBFCF2292AE86E2D20171F69F6715550CB827B40839639A5F2770314A7CD293819B45C73AAFB45B35BA61ACAA1C1C7E7855C58C15BC331339661262CC762340413D68D77DA5B42298546CBE6573AF60CEB2F504B0304140006080800CC70623B449FB9BD290100001202000031
310
0000006662782F36394639363044362D344446342D343946362D394244322D3234314243333846323333332F636F72652E786D6C8D515B6EC32010BC0AE22B55850D98B871848994463E412FE002495162B07854397EA176A4F62F3F2C9A9D991D587EB84F37F0AD7D30CEF6905418026DA553C65E7A98E219ED203808EE9D
310
8B7F6810D871D23D2C3014FCE25D9A57483A1BB58D19B54EE9151C43D0110279CB971E06F9A5A7B11A53CC8C70ADE6515EC78BAE4895DB992778883E0700CB907242D17643D7E2538BD869608875438BBAE38922CAC8F1BDD90DB4691A5E2F42C153326A951B95E398B3D1FE599322163C9AE9115F7A3D46ADA0A018778810
310
84E907617BDCEE297BC5BB3DC6BC2EF47FA234AB2745C9D8D8D035EE220B50105E2F0DC1954B9FB747187D9F9D8FA0CCDB042D5FA0C015C65B42DF78BD10F3F3B363CB56C7109DCFDFBBB97E662ED92EB62D13BC2E1BCAE5777DB9966D8A1F504B0304140006080800CC70623BAD7543B64E01000033030000300000006662
310
782F36394639363044362D344446342D343946362D394244322D3234314243333846323333332F636E782E786D6CD593CD6EC32010845F0571AD6CE3D48AD20813A9873E410FBD12D82434182C7EAAE6EDBB2424CD25871E7B41D6EC30B3FA84F9E67BB2E40B4234DE8DB46F1925E094D7C6ED479AD3AE5951B2113C789FEE
310
6C943839C1488B4C05DF079FE72A69D8C96C13AAD6B8631503449F83828872B949AC57D26200B826A308D316B4064D6E46FCDA41C05550DC9E483A00797BFD207EFB092A45DE9514C1BBD22178396BD39D891265658C238DEA00936C654E5E433CB65A26D9F6EDB5EBC14EBF49A45CB856E66048291F6939A9A81BB5C89177
310
38143CA680F4AA299D66A042CEB3354A2684DC9D8D178FE0D9B8B41CAAD720F880EE7EF93C0C18769E099ECC04D5A102C8049A8A05632F4DDF376CF1DE0F6BB65C2F8627B65A33C6BB62177CEBBDAD973006829F89F22E814B54F4BC2BE347F8AA8F681390B50FA73F804400B5F542E796F19FF974E7F78DB802FE05E20750
310
4B0304140006080800CC70623B8D05915C650500003B100000340000006662782F36394639363044362D344446342D343946362D394244322D3234314243333846323333332F6F626A656374732E786D6CAD575B6FA33814FE2B887D06429276DA1565D4266D158D3A339A6846FB502932E050B66023DB74D2FDF5FB190C01
310
9276B2973C046C8ECFF53B17071F77456EBD502133CEAE6CDF9DD81665314F32965ED995DA3A17B6F5310C04E7AA47665B8C14F4CAD6DB7618A48257A5D94AE89654B91AEDDEDDFC61C998326A5B714EA4BCB265FC440BE2924AF184CA6737218AB8E976E7FA6E4338649B0A523E8D98964450A6A029F619B8588D52FE7039
310
B1BD30F0F4F730D0FF866AF6369557DB33949F31A9088B0F848DD8CCFCF9F2767A76E99CCDE733677E3EF59D9BBB9BA5E37F984D16E78BC5E5F5ED25044B25C0C96822E8D60EEFE11B91C581D77CEA34368A1F5329E68CD1B8B61F16D63A1B8E092D294B10C78C4A48EB593D192E7DED9BDEE7995E1B91FDEDD3ACEA9FE831
310
6A756F9F7D4D79F4274C90A7A04248AA51D5F8C718DAE06FB2F75AC4796EBE65D22A88A22223B995679120E2D50E41AA49C260C046A35368846B0BECD0DFF3EBEB8AD4F835768F69B9ADF25C43D30E6B646F807FAA64AD59F61715C7A54127C4AACA98BA3006A9D792DAE165E0D59B61A01FB3A9F9D838D2DAE62445C86166
310
F37564E842E7DE6A69879FEEA2DD5AE7E371E1A5E025154AC307D06A03D73EB5978C58FFA4C8E9033066E0F3BD53BEC1F39F91BE7B55103791EDE6BBB991A2046172CB4581D8B893FA674DDA17A77B3B7C413D1B511FD2743BFF8A38F03A658705E3ADF8015C3A3417FF3D7E439FF591DA0B5F18BC20C1B8981957AE6392A3
310
F43C640C01D1A0B4728E2DD4F26DB4B3C3152A252A3B4E913CEC1C72F012782FF88EFF8637AA552DBEF76408E8A8DE9E50F9E1CB3A2DA0DB1B6039A893B56063DC5B3E3FFB5F72E67AB9FEB4AEC496C4F4C1149625DD662C53E89D7BF0F6151A046260D1337DFDC94502430F83B0EE07A130A224BCAD7DAE1D9FB6CD422FF6
310
920702629C4BB9AE79C12F243C6432A6794E18E5552BA56B431AAB5D91317302B2B071E86C3A42B1A02F999E24061403B5D0EB639195DA655DD3EBEAB4FB862DDF579F014AD0E73C22F99E28DA57FB98E75C6CA2D74D53086D600F4786E0FE3144B771A8A7B900F03594DB8A633CBC49B2EDB69228BB479CF863B5E807AAAB
310
23872F6DFEB4129B949CA33823F58830E86D65621E10047D9DB34D862E8EAC3C2ABC2F7B2C40D67CDFE01F5545B92105AF983AC54D93D69E56FB8E797F88913F898A9FEC705D3F9D1B54EC8426FB500D40A03BD0119B06E1B95DDC7EB8F6975367793EBD70E66733DFB9BC982F9CE564727731999F5D4ECFCE3B8D6A4DC2A0
310
6D50FD148437D110834A64C6CDDF57FBACB5C307A2A477DFE4939736CFEF2B175371E0E10CF0DD1D5C15654E0BCA14D1E87DD02FF93782A162C0A3D95F1524A52770F972BF1EE9809D13CE7DD599467F8ECE9ADD85CE85A34CD45355448C64F9E8A031DC2D596ACC6E5DD93D9B82DE2EF5CAF81363A8E47996A0DE24564A79
310
4115AACE09C55E14540231FDA13C319787134EBF34E3A022514E5B4D9E0826E25C02D5805B15ABE1BEF51B26383D445DD9E875EE33FE4C22DA16427D65A3BCA92CA6D28DD01DF5DC53330704308475351050232CCD31583787BA75774AFB06E5070DD0C8EF484E19968C5D83BA5B90B244D31E54D55A372320FE4786B7EA58
310
44E135AA5467CB7EA333A61683CC6A8C3257034C10CF46F40EF9F5BE59BE5BD30C3C72D235E95D10345C1D45445A5F0BB47E46A5EBE5570F9380B5FA629579952296A773720405982B9DE04011506178964401AA8BDF1FBF0A8EAB6861DD6580C0E38217056766716DAEB2D6FA0917D3E4116581EADB879C4E7CFFB11EFACD
310
3D641311495D92C8676CB409A72D18610D803CE8A626049E8EC1887CB5B44CC39883690DDA8399B4B9855B481E7D71D4A9D22F96E5BB73BF5793020C02137BF837504B0304140006080000CC70623B000000000000000000000000350000006662782F36394639363044362D344446342D343946362D394244322D32343142
310
43333846323333332F76657274696365732E62696E504B0304140006080800CC70623BF270F1330600000004000000360000006662782F36394639363044362D344446342D343946362D394244322D3234314243333846323333332F747269616E676C65732E62696E636660600000504B0304140006080000CC70623B0000
310
00000000000000000000370000006662782F36394639363044362D344446342D343946362D394244322D3234314243333846323333332F617474726962757465732E62696E504B0304140006080800CC70623B08DA0BD19000000041010000360000006662782F36394639363044362D344446342D343946362D394244322D
310
3234314243333846323333332F6469726563746F72792E786D6C858F410AC3201045AF22B36F53E9A60B35CBEEBAE80D244E44489C6234F4F835464A48035D0DF398FF9F8AF63D0E6CC63039F212F8F9020C7D47C6792B21C5FE7403D62A1188E2E60C98D7234A5830286103A55745067B9D86B8A3CF9C7F90C11DE607FB14
310
4396D7B6A82D282E9A152AD114D5EF2CB866EEE831B8EEA07A7BB5A8D7D61A2BAAEB7FD5F70921FF497D00504B0304140006080800CC70623BCA768048FE000000A00100003B0000006662782F36394639363044362D344446342D343946362D394244322D3234314243333846323333332F7265736F75726365732F636F72
310
652E786D6C8D50596E833010BD0A9ADFCA60D600328E9AA639412F609909B1126CE4A5EAF16B0295DABFFECC8CDEA2797AECF8353F924FB44E193D409E5248504B332A3D0D10FC95B4901C39B3C6F85F3248B49871801506CE266BC2B243D2688FDA47549B11775038871E12F988C7004EDE7016A9083E2ADC3D5D84BC8B09
310
D33C8D74D471E6BC8D0192EDC93A815B742658898E651BCB59086ADC356A8C3FD555A1055ED7E7E254D615792D0F075295F585746FF53B694EE78A565DD736979A65AB9933AFE69F8CD2A2F038022F28ED489E135A7CE4554F9BBEA85E68DB53CAB255FEC71496F19FA6A0B42F8B3DEE6673C0F318E4497096AD7DC5F52C33
310
EEB55BFE0D504B010214000A0000080000CC70623B3DEE336E79000000790000001B00000000000000000000000000000000006175746F6465736B2D64657369676E2D7061636B6167652E786D6C504B01021400140006080800CC70623BD486FD9CA0000000F40000001300000000000000000000000000B20000005B436F
310
6E74656E745F54797065735D2E786D6C504B01021400140006080800CC70623BD9DDAED0EC0000007C010000080000000000000000000000000083010000636F72652E786D6C504B01021400140006080800CC70623B55019EA25F0000007C000000070000000000000000000000000095020000636E782E786D6C504B0102
310
1400140006080800CC70623BA24EB22D72010000D40300000C00000000000000000000000000190300006662782F636F72652E786D6C504B01021400140006080800CC70623B408A7D3B7C0000009D0000000B00000000000000000000000000B50400006662782F636E782E786D6C504B01021400140006080800CC70623B
310
449FB9BD290100001202000031000000000000000000000000005A0500006662782F36394639363044362D344446342D343946362D394244322D3234314243333846323333332F636F72652E786D6C504B01021400140006080800CC70623BAD7543B64E010000330300003000000000000000000000000000D20600006662
310
782F36394639363044362D344446342D343946362D394244322D3234314243333846323333332F636E782E786D6C504B01021400140006080800CC70623B8D05915C650500003B10000034000000000000000000000000006E0800006662782F36394639363044362D344446342D343946362D394244322D32343142433338
310
46323333332F6F626A656374732E786D6C504B01021400140006080000CC70623B0000000000000000000000003500000000000000000000000000250E00006662782F36394639363044362D344446342D343946362D394244322D3234314243333846323333332F76657274696365732E62696E504B010214001400060808
310
00CC70623BF270F13306000000040000003600000000000000000000000000780E00006662782F36394639363044362D344446342D343946362D394244322D3234314243333846323333332F747269616E676C65732E62696E504B01021400140006080000CC70623B00000000000000000000000037000000000000000000
310
00000000D20E00006662782F36394639363044362D344446342D343946362D394244322D3234314243333846323333332F617474726962757465732E62696E504B01021400140006080800CC70623B08DA0BD190000000410100003600000000000000000000000000270F00006662782F36394639363044362D344446342D
310
343946362D394244322D3234314243333846323333332F6469726563746F72792E786D6C504B01021400140006080800CC70623BCA768048FE000000A00100003B000000000000000000000000000B1000006662782F36394639363044362D344446342D343946362D394244322D3234314243333846323333332F7265736F
310
75726365732F636F72652E786D6C504B0506000000000E000E0080040000621100000000
  0
XRECORD
  5
176
102
{ACAD_REACTORS
330
173
102
}
330
173
100
AcDbXrecord
280
     1
270
     1
271
     1
  0
XRECORD
  5
177
102
{ACAD_REACTORS
330
173
102
}
330
173
100
AcDbXrecord
280
     1
270
     1
271
     1
  0
XRECORD
  5
12043
102
{ACAD_REACTORS
330
12042
102
}
330
12042
100
AcDbXrecord
280
     1
102
ACAD_ROUNDTRIP_2012_MLEADER_STYLE
298
     1
  0
XRECORD
  5
12055
102
{ACAD_REACTORS
330
12054
102
}
330
12054
100
AcDbXrecord
280
     1
102
DISPLAYNAME
  1
Metric50
102
FLAGS
 90
        0
  0
CELLSTYLEMAP
  5
12015
102
{ACAD_REACTORS
330
162
102
}
330
162
100
AcDbCellStyleMap
 90
        3
300
CELLSTYLE
  1
TABLEFORMAT_BEGIN
 90
        5
170
     1
 91
        0
 92
    32768
 62
   257
 93
        1
300
CONTENTFORMAT
  1
CONTENTFORMAT_BEGIN
 90
        0
 91
        0
 92
      512
 93
        0
300

 40
0.0
140
1.0
 94
        5
 62
     0
340
11
144
6.0
309
CONTENTFORMAT_END
171
     1
301
MARGIN
  1
CELLMARGIN_BEGIN
 40
1.5
 40
1.5
 40
1.5
 40
1.5
 40
4.5
 40
4.5
309
CELLMARGIN_END
 94
        6
 95
        1
302
GRIDFORMAT
  1
GRIDFORMAT_BEGIN
 90
        0
 91
        1
 62
     0
 92
       -2
340
14
 93
        0
 40
1.125
309
GRIDFORMAT_END
 95
        2
302
GRIDFORMAT
  1
GRIDFORMAT_BEGIN
 90
        0
 91
        1
 62
     0
 92
       -2
340
14
 93
        0
 40
1.125
309
GRIDFORMAT_END
 95
        4
302
GRIDFORMAT
  1
GRIDFORMAT_BEGIN
 90
        0
 91
        1
 62
     0
 92
       -2
340
14
 93
        0
 40
1.125
309
GRIDFORMAT_END
 95
        8
302
GRIDFORMAT
  1
GRIDFORMAT_BEGIN
 90
        0
 91
        1
 62
     0
 92
       -2
340
14
 93
        0
 40
1.125
309
GRIDFORMAT_END
 95
       16
302
GRIDFORMAT
  1
GRIDFORMAT_BEGIN
 90
        0
 91
        1
 62
     0
 92
       -2
340
14
 93
        0
 40
1.125
309
GRIDFORMAT_END
 95
       32
302
GRIDFORMAT
  1
GRIDFORMAT_BEGIN
 90
        0
 91
        1
 62
     0
 92
       -2
340
14
 93
        0
 40
1.125
309
GRIDFORMAT_END
309
TABLEFORMAT_END
  1
CELLSTYLE_BEGIN
 90
        1
 91
        1
300
_TITLE
309
CELLSTYLE_END
300
CELLSTYLE
  1
TABLEFORMAT_BEGIN
 90
        5
170
     1
 91
        0
 92
        0
 62
   257
 93
        1
300
CONTENTFORMAT
  1
CONTENTFORMAT_BEGIN
 90
        0
 91
        0
 92
      512
 93
        0
300

 40
0.0
140
1.0
 94
        5
 62
     0
340
11
144
4.5
309
CONTENTFORMAT_END
171
     1
301
MARGIN
  1
CELLMARGIN_BEGIN
 40
1.5
 40
1.5
 40
1.5
 40
1.5
 40
4.5
 40
4.5
309
CELLMARGIN_END
 94
        6
 95
        1
302
GRIDFORMAT
  1
GRIDFORMAT_BEGIN
 90
        0
 91
        1
 62
     0
 92
       -2
340
14
 93
        0
 40
1.125
309
GRIDFORMAT_END
 95
        2
302
GRIDFORMAT
  1
GRIDFORMAT_BEGIN
 90
        0
 91
        1
 62
     0
 92
       -2
340
14
 93
        0
 40
1.125
309
GRIDFORMAT_END
 95
        4
302
GRIDFORMAT
  1
GRIDFORMAT_BEGIN
 90
        0
 91
        1
 62
     0
 92
       -2
340
14
 93
        0
 40
1.125
309
GRIDFORMAT_END
 95
        8
302
GRIDFORMAT
  1
GRIDFORMAT_BEGIN
 90
        0
 91
        1
 62
     0
 92
       -2
340
14
 93
        0
 40
1.125
309
GRIDFORMAT_END
 95
       16
302
GRIDFORMAT
  1
GRIDFORMAT_BEGIN
 90
        0
 91
        1
 62
     0
 92
       -2
340
14
 93
        0
 40
1.125
309
GRIDFORMAT_END
 95
       32
302
GRIDFORMAT
  1
GRIDFORMAT_BEGIN
 90
        0
 91
        1
 62
     0
 92
       -2
340
14
 93
        0
 40
1.125
309
GRIDFORMAT_END
309
TABLEFORMAT_END
  1
CELLSTYLE_BEGIN
 90
        2
 91
        1
300
_HEADER
309
CELLSTYLE_END
300
CELLSTYLE
  1
TABLEFORMAT_BEGIN
 90
        5
170
     1
 91
        0
 92
        0
 62
   257
 93
        1
300
CONTENTFORMAT
  1
CONTENTFORMAT_BEGIN
 90
        0
 91
        0
 92
      512
 93
        0
300

 40
0.0
140
1.0
 94
        2
 62
     0
340
11
144
4.5
309
CONTENTFORMAT_END
171
     1
301
MARGIN
  1
CELLMARGIN_BEGIN
 40
1.5
 40
1.5
 40
1.5
 40
1.5
 40
4.5
 40
4.5
309
CELLMARGIN_END
 94
        6
 95
        1
302
GRIDFORMAT
  1
GRIDFORMAT_BEGIN
 90
        0
 91
        1
 62
     0
 92
       -2
340
14
 93
        0
 40
1.125
309
GRIDFORMAT_END
 95
        2
302
GRIDFORMAT
  1
GRIDFORMAT_BEGIN
 90
        0
 91
        1
 62
     0
 92
       -2
340
14
 93
        0
 40
1.125
309
GRIDFORMAT_END
 95
        4
302
GRIDFORMAT
  1
GRIDFORMAT_BEGIN
 90
        0
 91
        1
 62
     0
 92
       -2
340
14
 93
        0
 40
1.125
309
GRIDFORMAT_END
 95
        8
302
GRIDFORMAT
  1
GRIDFORMAT_BEGIN
 90
        0
 91
        1
 62
     0
 92
       -2
340
14
 93
        0
 40
1.125
309
GRIDFORMAT_END
 95
       16
302
GRIDFORMAT
  1
GRIDFORMAT_BEGIN
 90
        0
 91
        1
 62
     0
 92
       -2
340
14
 93
        0
 40
1.125
309
GRIDFORMAT_END
 95
       32
302
GRIDFORMAT
  1
GRIDFORMAT_BEGIN
 90
        0
 91
        1
 62
     0
 92
       -2
340
14
 93
        0
 40
1.125
309
GRIDFORMAT_END
309
TABLEFORMAT_END
  1
CELLSTYLE_BEGIN
 90
        3
 91
        2
300
_DATA
309
CELLSTYLE_END
  0
XRECORD
  5
1201A
102
{ACAD_REACTORS
330
162
102
}
330
162
100
AcDbXrecord
280
     1
102
ACAD_ROUNDTRIP_PRE2007_TABLESTYLE
 90
      512
 91
        0
  1

 92
      512
 93
        0
  2

 94
      512
 95
        0
  3

  0
XRECORD
  5
1202D
102
{ACAD_REACTORS
330
1202C
102
}
330
1202C
100
AcDbXrecord
280
     1
102
RTVSPost2010Prop28
280
     1
102
RTVSPost2010PropOp28
 70
     1
102
RTVSPost2010Prop29
280
     1
102
RTVSPost2010PropOp29
 70
     1
102
RTVSPost2010Prop30
280
     0
102
RTVSPost2010PropOp30
 70
     1
102
RTVSPost2010Prop31
280
     0
102
RTVSPost2010PropOp31
 70
     1
102
RTVSPost2010Prop32
280
     0
102
RTVSPost2010PropOp32
 70
     1
102
RTVSPost2010Prop33
280
     0
102
RTVSPost2010PropOp33
 70
     1
102
RTVSPost2010Prop34
280
     0
102
RTVSPost2010PropOp34
 70
     1
102
RTVSPost2010Prop35
280
     0
102
RTVSPost2010PropOp35
 70
     1
102
RTVSPost2010Prop36
280
     0
102
RTVSPost2010PropOp36
 70
     1
102
RTVSPost2010Prop37
 90
       50
102
RTVSPost2010PropOp37
 70
     1
102
RTVSPost2010Prop38
140
0.0
102
RTVSPost2010PropOp38
 70
     1
102
RTVSPost2010Prop39
140
1.0
102
RTVSPost2010PropOp39
 70
     1
102
RTVSPost2010Prop40
 90
        0
102
RTVSPost2010PropOp40
 70
     1
102
RTVSPost2010Prop41ColorIndex
 90
       18
102
RTVSPost2010Prop41ColorRGB
 90
        0
102
RTVSPost2010PropOp41
 70
     1
102
RTVSPost2010Prop42
 90
       50
102
RTVSPost2010PropOp42
 70
     1
102
RTVSPost2010Prop43
 90
        3
102
RTVSPost2010PropOp43
 70
     1
102
RTVSPost2010Prop44ColorIndex
 90
        5
102
RTVSPost2010Prop44ColorRGB
 90
      255
102
RTVSPost2010PropOp44
 70
     1
102
RTVSPost2010Prop45
280
     0
102
RTVSPost2010PropOp45
 70
     1
102
RTVSPost2010Prop46
 90
       50
102
RTVSPost2010PropOp46
 70
     1
102
RTVSPost2010Prop47
 90
       50
102
RTVSPost2010PropOp47
 70
     1
102
RTVSPost2010Prop48
 90
       50
102
RTVSPost2010PropOp48
 70
     1
102
RTVSPost2010Prop49
280
     0
102
RTVSPost2010PropOp49
 70
     1
102
RTVSPost2010Prop50
 90
       50
102
RTVSPost2010PropOp50
 70
     1
102
RTVSPost2010Prop51ColorIndex
 90
      256
102
RTVSPost2010Prop51ColorRGB
 90
-16777216
102
RTVSPost2010PropOp51
 70
     0
102
RTVSPost2010Prop52
140
1.0
102
RTVSPost2010PropOp52
 70
     0
102
RTVSPost2010Prop53
 90
        2
102
RTVSPost2010PropOp53
 70
     1
102
RTVSPost2010Prop54
  1
strokes_ogs.tif
102
RTVSPost2010PropOp54
 70
     1
102
RTVSPost2010Prop55
280
     0
102
RTVSPost2010PropOp55
 70
     1
102
RTVSPost2010Prop56
140
1.0
102
RTVSPost2010PropOp56
 70
     1
102
RTVSPost2010Prop57
140
1.0
102
RTVSPost2010PropOp57
 70
     1
102
RTVSPropertyOp0
 70
     1
102
RTVSPropertyOp1
 70
     1
102
RTVSPropertyOp2
 70
     1
102
RTVSPropertyOp3
 70
     1
102
RTVSPropertyOp4
 70
     1
102
RTVSPropertyOp5
 70
     1
102
RTVSPropertyOp6
 70
     1
102
RTVSPropertyOp7
 70
     1
102
RTVSPropertyOp8
 70
     1
102
RTVSPropertyOp9
 70
     1
102
RTVSPropertyOp10
 70
     1
102
RTVSPropertyOp11
 70
     1
102
RTVSPropertyOp12
 70
     1
102
RTVSPropertyOp13
 70
     1
102
RTVSPropertyOp14
 70
     1
102
RTVSPropertyOp15
 70
     1
102
RTVSPropertyOp16
 70
     1
102
RTVSPropertyOp17
 70
     1
102
RTVSPropertyOp18
 70
     1
102
RTVSPropertyOp19
 70
     1
102
RTVSPropertyOp20
 70
     1
102
RTVSPropertyOp21
 70
     1
102
RTVSPropertyOp22
 70
     1
102
RTVSPropertyOp23
 70
     1
102
RTVSPropertyOp24
 70
     1
102
RTVSPropertyOp25
 70
     1
102
RTVSPropertyOp26
 70
     1
102
RTVSPropertyOp27
 70
     1
102
RTVSPropertyOp28
 70
     1
102
RTVSPropertyOp29
 70
     1
102
RTVSPropertyOp30
 70
     1
102
RTVSPropertyOp31
 70
     1
102
RTVSPropertyOp32
 70
     1
102
RTVSPropertyOp33
 70
     1
102
RTVSPropertyOp34
 70
     1
102
RTVSPropertyOp35
 70
     1
102
RTVSPropertyOp36
 70
     1
102
RTVSPropertyOp37
 70
     1
102
RTVSPropertyOp38
 70
     1
102
RTVSPropertyOp39
 70
     1
102
RTVSPropertyOp40
 70
     1
102
RTVSPropertyOp41
 70
     1
102
RTVSPropertyOp42
 70
     1
102
RTVSPropertyOp43
 70
     1
102
RTVSPropertyOp44
 70
     1
102
RTVSPropertyOp45
 70
     1
102
RTVSPropertyOp46
 70
     1
102
RTVSPropertyOp47
 70
     1
102
RTVSPropertyOp48
 70
     1
102
RTVSPropertyOp49
 70
     1
102
RTVSPropertyOp50
 70
     1
102
RTVSPropertyOp51
 70
     0
102
RTVSPropertyOp52
 70
     0
102
RTVSPropertyOp53
 70
     1
102
RTVSPropertyOp54
 70
     1
102
RTVSPropertyOp55
 70
     1
102
RTVSPropertyOp56
 70
     1
102
RTVSPropertyOp57
 70
     1
102
RTVSPropertyOp58
 70
     1
102
RTVSPropertyOp59
 70
     1
102
RTVSPropertyOp60
 70
     1
102
RTVSPropertyOp61
 70
     1
102
RTVSPropertyOp62
 70
     1
  0
XRECORD
  5
1202B
102
{ACAD_REACTORS
330
1202A
102
}
330
1202A
100
AcDbXrecord
280
     1
102
RTVSPost2010Prop28
280
     0
102
RTVSPost2010PropOp28
 70
     1
102
RTVSPost2010Prop29
280
     1
102
RTVSPost2010PropOp29
 70
     1
102
RTVSPost2010Prop30
280
     1
102
RTVSPost2010PropOp30
 70
     1
102
RTVSPost2010Prop31
280
     0
102
RTVSPost2010PropOp31
 70
     1
102
RTVSPost2010Prop32
280
     0
102
RTVSPost2010PropOp32
 70
     1
102
RTVSPost2010Prop33
280
     0
102
RTVSPost2010PropOp33
 70
     1
102
RTVSPost2010Prop34
280
     0
102
RTVSPost2010PropOp34
 70
     1
102
RTVSPost2010Prop35
280
     0
102
RTVSPost2010PropOp35
 70
     1
102
RTVSPost2010Prop36
280
     0
102
RTVSPost2010PropOp36
 70
     1
102
RTVSPost2010Prop37
 90
       50
102
RTVSPost2010PropOp37
 70
     1
102
RTVSPost2010Prop38
140
0.0
102
RTVSPost2010PropOp38
 70
     1
102
RTVSPost2010Prop39
140
1.0
102
RTVSPost2010PropOp39
 70
     1
102
RTVSPost2010Prop40
 90
        0
102
RTVSPost2010PropOp40
 70
     1
102
RTVSPost2010Prop41ColorIndex
 90
       18
102
RTVSPost2010Prop41ColorRGB
 90
        0
102
RTVSPost2010PropOp41
 70
     1
102
RTVSPost2010Prop42
 90
       50
102
RTVSPost2010PropOp42
 70
     1
102
RTVSPost2010Prop43
 90
        3
102
RTVSPost2010PropOp43
 70
     1
102
RTVSPost2010Prop44ColorIndex
 90
        5
102
RTVSPost2010Prop44ColorRGB
 90
      255
102
RTVSPost2010PropOp44
 70
     1
102
RTVSPost2010Prop45
280
     0
102
RTVSPost2010PropOp45
 70
     1
102
RTVSPost2010Prop46
 90
       50
102
RTVSPost2010PropOp46
 70
     1
102
RTVSPost2010Prop47
 90
       50
102
RTVSPost2010PropOp47
 70
     1
102
RTVSPost2010Prop48
 90
       50
102
RTVSPost2010PropOp48
 70
     1
102
RTVSPost2010Prop49
280
     0
102
RTVSPost2010PropOp49
 70
     1
102
RTVSPost2010Prop50
 90
       50
102
RTVSPost2010PropOp50
 70
     1
102
RTVSPost2010Prop51ColorIndex
 90
      256
102
RTVSPost2010Prop51ColorRGB
 90
-16777216
102
RTVSPost2010PropOp51
 70
     0
102
RTVSPost2010Prop52
140
1.0
102
RTVSPost2010PropOp52
 70
     0
102
RTVSPost2010Prop53
 90
        2
102
RTVSPost2010PropOp53
 70
     1
102
RTVSPost2010Prop54
  1
strokes_ogs.tif
102
RTVSPost2010PropOp54
 70
     1
102
RTVSPost2010Prop55
280
     0
102
RTVSPost2010PropOp55
 70
     1
102
RTVSPost2010Prop56
140
1.0
102
RTVSPost2010PropOp56
 70
     1
102
RTVSPost2010Prop57
140
1.0
102
RTVSPost2010PropOp57
 70
     1
102
RTVSPropertyOp0
 70
     1
102
RTVSPropertyOp1
 70
     1
102
RTVSPropertyOp2
 70
     1
102
RTVSPropertyOp3
 70
     1
102
RTVSPropertyOp4
 70
     1
102
RTVSPropertyOp5
 70
     1
102
RTVSPropertyOp6
 70
     1
102
RTVSPropertyOp7
 70
     1
102
RTVSPropertyOp8
 70
     1
102
RTVSPropertyOp9
 70
     1
102
RTVSPropertyOp10
 70
     1
102
RTVSPropertyOp11
 70
     1
102
RTVSPropertyOp12
 70
     1
102
RTVSPropertyOp13
 70
     1
102
RTVSPropertyOp14
 70
     1
102
RTVSPropertyOp15
 70
     1
102
RTVSPropertyOp16
 70
     1
102
RTVSPropertyOp17
 70
     1
102
RTVSPropertyOp18
 70
     1
102
RTVSPropertyOp19
 70
     1
102
RTVSPropertyOp20
 70
     1
102
RTVSPropertyOp21
 70
     1
102
RTVSPropertyOp22
 70
     1
102
RTVSPropertyOp23
 70
     1
102
RTVSPropertyOp24
 70
     1
102
RTVSPropertyOp25
 70
     1
102
RTVSPropertyOp26
 70
     1
102
RTVSPropertyOp27
 70
     1
102
RTVSPropertyOp28
 70
     1
102
RTVSPropertyOp29
 70
     1
102
RTVSPropertyOp30
 70
     1
102
RTVSPropertyOp31
 70
     1
102
RTVSPropertyOp32
 70
     1
102
RTVSPropertyOp33
 70
     1
102
RTVSPropertyOp34
 70
     1
102
RTVSPropertyOp35
 70
     1
102
RTVSPropertyOp36
 70
     1
102
RTVSPropertyOp37
 70
     1
102
RTVSPropertyOp38
 70
     1
102
RTVSPropertyOp39
 70
     1
102
RTVSPropertyOp40
 70
     1
102
RTVSPropertyOp41
 70
     1
102
RTVSPropertyOp42
 70
     1
102
RTVSPropertyOp43
 70
     1
102
RTVSPropertyOp44
 70
     1
102
RTVSPropertyOp45
 70
     1
102
RTVSPropertyOp46
 70
     1
102
RTVSPropertyOp47
 70
     1
102
RTVSPropertyOp48
 70
     1
102
RTVSPropertyOp49
 70
     1
102
RTVSPropertyOp50
 70
     1
102
RTVSPropertyOp51
 70
     0
102
RTVSPropertyOp52
 70
     0
102
RTVSPropertyOp53
 70
     1
102
RTVSPropertyOp54
 70
     1
102
RTVSPropertyOp55
 70
     1
102
RTVSPropertyOp56
 70
     1
102
RTVSPropertyOp57
 70
     1
102
RTVSPropertyOp58
 70
     1
102
RTVSPropertyOp59
 70
     1
102
RTVSPropertyOp60
 70
     1
102
RTVSPropertyOp61
 70
     1
102
RTVSPropertyOp62
 70
     1
  0
XRECORD
  5
12039
102
{ACAD_REACTORS
330
12038
102
}
330
12038
100
AcDbXrecord
280
     1
102
RTVSPost2010Prop28
280
     0
102
RTVSPost2010PropOp28
 70
     1
102
RTVSPost2010Prop29
280
     1
102
RTVSPost2010PropOp29
 70
     1
102
RTVSPost2010Prop30
280
     1
102
RTVSPost2010PropOp30
 70
     1
102
RTVSPost2010Prop31
280
     0
102
RTVSPost2010PropOp31
 70
     1
102
RTVSPost2010Prop32
280
     0
102
RTVSPost2010PropOp32
 70
     1
102
RTVSPost2010Prop33
280
     0
102
RTVSPost2010PropOp33
 70
     1
102
RTVSPost2010Prop34
280
     0
102
RTVSPost2010PropOp34
 70
     1
102
RTVSPost2010Prop35
280
     0
102
RTVSPost2010PropOp35
 70
     1
102
RTVSPost2010Prop36
280
     0
102
RTVSPost2010PropOp36
 70
     1
102
RTVSPost2010Prop37
 90
       50
102
RTVSPost2010PropOp37
 70
     1
102
RTVSPost2010Prop38
140
0.0
102
RTVSPost2010PropOp38
 70
     1
102
RTVSPost2010Prop39
140
1.0
102
RTVSPost2010PropOp39
 70
     1
102
RTVSPost2010Prop40
 90
        0
102
RTVSPost2010PropOp40
 70
     1
102
RTVSPost2010Prop41ColorIndex
 90
       18
102
RTVSPost2010Prop41ColorRGB
 90
        0
102
RTVSPost2010PropOp41
 70
     1
102
RTVSPost2010Prop42
 90
       50
102
RTVSPost2010PropOp42
 70
     1
102
RTVSPost2010Prop43
 90
        3
102
RTVSPost2010PropOp43
 70
     1
102
RTVSPost2010Prop44ColorIndex
 90
        5
102
RTVSPost2010Prop44ColorRGB
 90
      255
102
RTVSPost2010PropOp44
 70
     1
102
RTVSPost2010Prop45
280
     0
102
RTVSPost2010PropOp45
 70
     1
102
RTVSPost2010Prop46
 90
       50
102
RTVSPost2010PropOp46
 70
     1
102
RTVSPost2010Prop47
 90
       50
102
RTVSPost2010PropOp47
 70
     1
102
RTVSPost2010Prop48
 90
       50
102
RTVSPost2010PropOp48
 70
     1
102
RTVSPost2010Prop49
280
     0
102
RTVSPost2010PropOp49
 70
     1
102
RTVSPost2010Prop50
 90
       50
102
RTVSPost2010PropOp50
 70
     1
102
RTVSPost2010Prop51ColorIndex
 90
      256
102
RTVSPost2010Prop51ColorRGB
 90
-16777216
102
RTVSPost2010PropOp51
 70
     0
102
RTVSPost2010Prop52
140
1.0
102
RTVSPost2010PropOp52
 70
     0
102
RTVSPost2010Prop53
 90
        2
102
RTVSPost2010PropOp53
 70
     1
102
RTVSPost2010Prop54
  1
strokes_ogs.tif
102
RTVSPost2010PropOp54
 70
     1
102
RTVSPost2010Prop55
280
     0
102
RTVSPost2010PropOp55
 70
     1
102
RTVSPost2010Prop56
140
1.0
102
RTVSPost2010PropOp56
 70
     1
102
RTVSPost2010Prop57
140
1.0
102
RTVSPost2010PropOp57
 70
     1
102
RTVSPropertyOp0
 70
     1
102
RTVSPropertyOp1
 70
     1
102
RTVSPropertyOp2
 70
     1
102
RTVSPropertyOp3
 70
     1
102
RTVSPropertyOp4
 70
     1
102
RTVSPropertyOp5
 70
     1
102
RTVSPropertyOp6
 70
     1
102
RTVSPropertyOp7
 70
     1
102
RTVSPropertyOp8
 70
     1
102
RTVSPropertyOp9
 70
     1
102
RTVSPropertyOp10
 70
     1
102
RTVSPropertyOp11
 70
     1
102
RTVSPropertyOp12
 70
     1
102
RTVSPropertyOp13
 70
     1
102
RTVSPropertyOp14
 70
     1
102
RTVSPropertyOp15
 70
     1
102
RTVSPropertyOp16
 70
     1
102
RTVSPropertyOp17
 70
     1
102
RTVSPropertyOp18
 70
     1
102
RTVSPropertyOp19
 70
     1
102
RTVSPropertyOp20
 70
     1
102
RTVSPropertyOp21
 70
     1
102
RTVSPropertyOp22
 70
     1
102
RTVSPropertyOp23
 70
     1
102
RTVSPropertyOp24
 70
     1
102
RTVSPropertyOp25
 70
     1
102
RTVSPropertyOp26
 70
     1
102
RTVSPropertyOp27
 70
     1
102
RTVSPropertyOp28
 70
     1
102
RTVSPropertyOp29
 70
     1
102
RTVSPropertyOp30
 70
     1
102
RTVSPropertyOp31
 70
     1
102
RTVSPropertyOp32
 70
     1
102
RTVSPropertyOp33
 70
     1
102
RTVSPropertyOp34
 70
     1
102
RTVSPropertyOp35
 70
     1
102
RTVSPropertyOp36
 70
     1
102
RTVSPropertyOp37
 70
     1
102
RTVSPropertyOp38
 70
     1
102
RTVSPropertyOp39
 70
     1
102
RTVSPropertyOp40
 70
     1
102
RTVSPropertyOp41
 70
     1
102
RTVSPropertyOp42
 70
     1
102
RTVSPropertyOp43
 70
     1
102
RTVSPropertyOp44
 70
     1
102
RTVSPropertyOp45
 70
     1
102
RTVSPropertyOp46
 70
     1
102
RTVSPropertyOp47
 70
     1
102
RTVSPropertyOp48
 70
     1
102
RTVSPropertyOp49
 70
     1
102
RTVSPropertyOp50
 70
     1
102
RTVSPropertyOp51
 70
     0
102
RTVSPropertyOp52
 70
     0
102
RTVSPropertyOp53
 70
     1
102
RTVSPropertyOp54
 70
     1
102
RTVSPropertyOp55
 70
     1
102
RTVSPropertyOp56
 70
     1
102
RTVSPropertyOp57
 70
     1
102
RTVSPropertyOp58
 70
     1
102
RTVSPropertyOp59
 70
     1
102
RTVSPropertyOp60
 70
     1
102
RTVSPropertyOp61
 70
     1
102
RTVSPropertyOp62
 70
     1
  0
XRECORD
  5
12041
102
{ACAD_REACTORS
330
12040
102
}
330
12040
100
AcDbXrecord
280
     1
102
RTVSPost2010Prop28
280
     0
102
RTVSPost2010PropOp28
 70
     1
102
RTVSPost2010Prop29
280
     1
102
RTVSPost2010PropOp29
 70
     1
102
RTVSPost2010Prop30
280
     1
102
RTVSPost2010PropOp30
 70
     1
102
RTVSPost2010Prop31
280
     0
102
RTVSPost2010PropOp31
 70
     1
102
RTVSPost2010Prop32
280
     0
102
RTVSPost2010PropOp32
 70
     1
102
RTVSPost2010Prop33
280
     0
102
RTVSPost2010PropOp33
 70
     1
102
RTVSPost2010Prop34
280
     0
102
RTVSPost2010PropOp34
 70
     1
102
RTVSPost2010Prop35
280
     0
102
RTVSPost2010PropOp35
 70
     1
102
RTVSPost2010Prop36
280
     0
102
RTVSPost2010PropOp36
 70
     1
102
RTVSPost2010Prop37
 90
       50
102
RTVSPost2010PropOp37
 70
     1
102
RTVSPost2010Prop38
140
0.0
102
RTVSPost2010PropOp38
 70
     1
102
RTVSPost2010Prop39
140
1.0
102
RTVSPost2010PropOp39
 70
     1
102
RTVSPost2010Prop40
 90
        0
102
RTVSPost2010PropOp40
 70
     1
102
RTVSPost2010Prop41ColorIndex
 90
       18
102
RTVSPost2010Prop41ColorRGB
 90
        0
102
RTVSPost2010PropOp41
 70
     1
102
RTVSPost2010Prop42
 90
       50
102
RTVSPost2010PropOp42
 70
     1
102
RTVSPost2010Prop43
 90
        3
102
RTVSPost2010PropOp43
 70
     1
102
RTVSPost2010Prop44ColorIndex
 90
        5
102
RTVSPost2010Prop44ColorRGB
 90
      255
102
RTVSPost2010PropOp44
 70
     1
102
RTVSPost2010Prop45
280
     0
102
RTVSPost2010PropOp45
 70
     1
102
RTVSPost2010Prop46
 90
       50
102
RTVSPost2010PropOp46
 70
     1
102
RTVSPost2010Prop47
 90
       50
102
RTVSPost2010PropOp47
 70
     1
102
RTVSPost2010Prop48
 90
       50
102
RTVSPost2010PropOp48
 70
     1
102
RTVSPost2010Prop49
280
     0
102
RTVSPost2010PropOp49
 70
     1
102
RTVSPost2010Prop50
 90
       50
102
RTVSPost2010PropOp50
 70
     1
102
RTVSPost2010Prop51ColorIndex
 90
      256
102
RTVSPost2010Prop51ColorRGB
 90
-16777216
102
RTVSPost2010PropOp51
 70
     0
102
RTVSPost2010Prop52
140
1.0
102
RTVSPost2010PropOp52
 70
     0
102
RTVSPost2010Prop53
 90
        2
102
RTVSPost2010PropOp53
 70
     1
102
RTVSPost2010Prop54
  1
strokes_ogs.tif
102
RTVSPost2010PropOp54
 70
     1
102
RTVSPost2010Prop55
280
     0
102
RTVSPost2010PropOp55
 70
     1
102
RTVSPost2010Prop56
140
1.0
102
RTVSPost2010PropOp56
 70
     1
102
RTVSPost2010Prop57
140
1.0
102
RTVSPost2010PropOp57
 70
     1
102
RTVSPropertyOp0
 70
     1
102
RTVSPropertyOp1
 70
     1
102
RTVSPropertyOp2
 70
     1
102
RTVSPropertyOp3
 70
     1
102
RTVSPropertyOp4
 70
     1
102
RTVSPropertyOp5
 70
     1
102
RTVSPropertyOp6
 70
     1
102
RTVSPropertyOp7
 70
     1
102
RTVSPropertyOp8
 70
     1
102
RTVSPropertyOp9
 70
     1
102
RTVSPropertyOp10
 70
     1
102
RTVSPropertyOp11
 70
     1
102
RTVSPropertyOp12
 70
     1
102
RTVSPropertyOp13
 70
     1
102
RTVSPropertyOp14
 70
     1
102
RTVSPropertyOp15
 70
     1
102
RTVSPropertyOp16
 70
     1
102
RTVSPropertyOp17
 70
     1
102
RTVSPropertyOp18
 70
     1
102
RTVSPropertyOp19
 70
     1
102
RTVSPropertyOp20
 70
     1
102
RTVSPropertyOp21
 70
     1
102
RTVSPropertyOp22
 70
     1
102
RTVSPropertyOp23
 70
     1
102
RTVSPropertyOp24
 70
     1
102
RTVSPropertyOp25
 70
     1
102
RTVSPropertyOp26
 70
     1
102
RTVSPropertyOp27
 70
     1
102
RTVSPropertyOp28
 70
     1
102
RTVSPropertyOp29
 70
     1
102
RTVSPropertyOp30
 70
     1
102
RTVSPropertyOp31
 70
     1
102
RTVSPropertyOp32
 70
     1
102
RTVSPropertyOp33
 70
     1
102
RTVSPropertyOp34
 70
     1
102
RTVSPropertyOp35
 70
     1
102
RTVSPropertyOp36
 70
     1
102
RTVSPropertyOp37
 70
     1
102
RTVSPropertyOp38
 70
     1
102
RTVSPropertyOp39
 70
     1
102
RTVSPropertyOp40
 70
     1
102
RTVSPropertyOp41
 70
     1
102
RTVSPropertyOp42
 70
     1
102
RTVSPropertyOp43
 70
     1
102
RTVSPropertyOp44
 70
     1
102
RTVSPropertyOp45
 70
     1
102
RTVSPropertyOp46
 70
     1
102
RTVSPropertyOp47
 70
     1
102
RTVSPropertyOp48
 70
     1
102
RTVSPropertyOp49
 70
     1
102
RTVSPropertyOp50
 70
     1
102
RTVSPropertyOp51
 70
     0
102
RTVSPropertyOp52
 70
     0
102
RTVSPropertyOp53
 70
     1
102
RTVSPropertyOp54
 70
     1
102
RTVSPropertyOp55
 70
     1
102
RTVSPropertyOp56
 70
     1
102
RTVSPropertyOp57
 70
     1
102
RTVSPropertyOp58
 70
     1
102
RTVSPropertyOp59
 70
     1
102
RTVSPropertyOp60
 70
     1
102
RTVSPropertyOp61
 70
     1
102
RTVSPropertyOp62
 70
     1
  0
XRECORD
  5
12033
102
{ACAD_REACTORS
330
12032
102
}
330
12032
100
AcDbXrecord
280
     1
102
RTVSPost2010Prop28
280
     0
102
RTVSPost2010PropOp28
 70
     1
102
RTVSPost2010Prop29
280
     1
102
RTVSPost2010PropOp29
 70
     1
102
RTVSPost2010Prop30
280
     1
102
RTVSPost2010PropOp30
 70
     1
102
RTVSPost2010Prop31
280
     0
102
RTVSPost2010PropOp31
 70
     1
102
RTVSPost2010Prop32
280
     0
102
RTVSPost2010PropOp32
 70
     1
102
RTVSPost2010Prop33
280
     0
102
RTVSPost2010PropOp33
 70
     1
102
RTVSPost2010Prop34
280
     0
102
RTVSPost2010PropOp34
 70
     1
102
RTVSPost2010Prop35
280
     0
102
RTVSPost2010PropOp35
 70
     1
102
RTVSPost2010Prop36
280
     0
102
RTVSPost2010PropOp36
 70
     1
102
RTVSPost2010Prop37
 90
       50
102
RTVSPost2010PropOp37
 70
     1
102
RTVSPost2010Prop38
140
0.0
102
RTVSPost2010PropOp38
 70
     1
102
RTVSPost2010Prop39
140
1.0
102
RTVSPost2010PropOp39
 70
     1
102
RTVSPost2010Prop40
 90
        0
102
RTVSPost2010PropOp40
 70
     1
102
RTVSPost2010Prop41ColorIndex
 90
       18
102
RTVSPost2010Prop41ColorRGB
 90
        0
102
RTVSPost2010PropOp41
 70
     1
102
RTVSPost2010Prop42
 90
       50
102
RTVSPost2010PropOp42
 70
     1
102
RTVSPost2010Prop43
 90
        3
102
RTVSPost2010PropOp43
 70
     1
102
RTVSPost2010Prop44ColorIndex
 90
        5
102
RTVSPost2010Prop44ColorRGB
 90
      255
102
RTVSPost2010PropOp44
 70
     1
102
RTVSPost2010Prop45
280
     0
102
RTVSPost2010PropOp45
 70
     1
102
RTVSPost2010Prop46
 90
       50
102
RTVSPost2010PropOp46
 70
     1
102
RTVSPost2010Prop47
 90
       50
102
RTVSPost2010PropOp47
 70
     1
102
RTVSPost2010Prop48
 90
       50
102
RTVSPost2010PropOp48
 70
     1
102
RTVSPost2010Prop49
280
     0
102
RTVSPost2010PropOp49
 70
     1
102
RTVSPost2010Prop50
 90
       50
102
RTVSPost2010PropOp50
 70
     1
102
RTVSPost2010Prop51ColorIndex
 90
      256
102
RTVSPost2010Prop51ColorRGB
 90
-16777216
102
RTVSPost2010PropOp51
 70
     0
102
RTVSPost2010Prop52
140
1.0
102
RTVSPost2010PropOp52
 70
     0
102
RTVSPost2010Prop53
 90
        2
102
RTVSPost2010PropOp53
 70
     1
102
RTVSPost2010Prop54
  1
strokes_ogs.tif
102
RTVSPost2010PropOp54
 70
     1
102
RTVSPost2010Prop55
280
     0
102
RTVSPost2010PropOp55
 70
     1
102
RTVSPost2010Prop56
140
1.0
102
RTVSPost2010PropOp56
 70
     1
102
RTVSPost2010Prop57
140
1.0
102
RTVSPost2010PropOp57
 70
     1
102
RTVSPropertyOp0
 70
     1
102
RTVSPropertyOp1
 70
     1
102
RTVSPropertyOp2
 70
     1
102
RTVSPropertyOp3
 70
     1
102
RTVSPropertyOp4
 70
     1
102
RTVSPropertyOp5
 70
     1
102
RTVSPropertyOp6
 70
     1
102
RTVSPropertyOp7
 70
     1
102
RTVSPropertyOp8
 70
     1
102
RTVSPropertyOp9
 70
     1
102
RTVSPropertyOp10
 70
     1
102
RTVSPropertyOp11
 70
     1
102
RTVSPropertyOp12
 70
     1
102
RTVSPropertyOp13
 70
     1
102
RTVSPropertyOp14
 70
     1
102
RTVSPropertyOp15
 70
     1
102
RTVSPropertyOp16
 70
     1
102
RTVSPropertyOp17
 70
     1
102
RTVSPropertyOp18
 70
     1
102
RTVSPropertyOp19
 70
     1
102
RTVSPropertyOp20
 70
     1
102
RTVSPropertyOp21
 70
     1
102
RTVSPropertyOp22
 70
     1
102
RTVSPropertyOp23
 70
     1
102
RTVSPropertyOp24
 70
     1
102
RTVSPropertyOp25
 70
     1
102
RTVSPropertyOp26
 70
     1
102
RTVSPropertyOp27
 70
     1
102
RTVSPropertyOp28
 70
     1
102
RTVSPropertyOp29
 70
     1
102
RTVSPropertyOp30
 70
     1
102
RTVSPropertyOp31
 70
     1
102
RTVSPropertyOp32
 70
     1
102
RTVSPropertyOp33
 70
     1
102
RTVSPropertyOp34
 70
     1
102
RTVSPropertyOp35
 70
     1
102
RTVSPropertyOp36
 70
     1
102
RTVSPropertyOp37
 70
     1
102
RTVSPropertyOp38
 70
     1
102
RTVSPropertyOp39
 70
     1
102
RTVSPropertyOp40
 70
     1
102
RTVSPropertyOp41
 70
     1
102
RTVSPropertyOp42
 70
     1
102
RTVSPropertyOp43
 70
     1
102
RTVSPropertyOp44
 70
     1
102
RTVSPropertyOp45
 70
     1
102
RTVSPropertyOp46
 70
     1
102
RTVSPropertyOp47
 70
     1
102
RTVSPropertyOp48
 70
     1
102
RTVSPropertyOp49
 70
     1
102
RTVSPropertyOp50
 70
     1
102
RTVSPropertyOp51
 70
     0
102
RTVSPropertyOp52
 70
     0
102
RTVSPropertyOp53
 70
     1
102
RTVSPropertyOp54
 70
     1
102
RTVSPropertyOp55
 70
     1
102
RTVSPropertyOp56
 70
     1
102
RTVSPropertyOp57
 70
     1
102
RTVSPropertyOp58
 70
     1
102
RTVSPropertyOp59
 70
     1
102
RTVSPropertyOp60
 70
     1
102
RTVSPropertyOp61
 70
     1
102
RTVSPropertyOp62
 70
     1
  0
XRECORD
  5
12037
102
{ACAD_REACTORS
330
12036
102
}
330
12036
100
AcDbXrecord
280
     1
102
RTVSPost2010Prop28
280
     0
102
RTVSPost2010PropOp28
 70
     1
102
RTVSPost2010Prop29
280
     1
102
RTVSPost2010PropOp29
 70
     1
102
RTVSPost2010Prop30
280
     1
102
RTVSPost2010PropOp30
 70
     1
102
RTVSPost2010Prop31
280
     0
102
RTVSPost2010PropOp31
 70
     1
102
RTVSPost2010Prop32
280
     0
102
RTVSPost2010PropOp32
 70
     1
102
RTVSPost2010Prop33
280
     0
102
RTVSPost2010PropOp33
 70
     1
102
RTVSPost2010Prop34
280
     0
102
RTVSPost2010PropOp34
 70
     1
102
RTVSPost2010Prop35
280
     0
102
RTVSPost2010PropOp35
 70
     1
102
RTVSPost2010Prop36
280
     0
102
RTVSPost2010PropOp36
 70
     1
102
RTVSPost2010Prop37
 90
       50
102
RTVSPost2010PropOp37
 70
     1
102
RTVSPost2010Prop38
140
0.0
102
RTVSPost2010PropOp38
 70
     1
102
RTVSPost2010Prop39
140
1.0
102
RTVSPost2010PropOp39
 70
     1
102
RTVSPost2010Prop40
 90
        0
102
RTVSPost2010PropOp40
 70
     1
102
RTVSPost2010Prop41ColorIndex
 90
       18
102
RTVSPost2010Prop41ColorRGB
 90
        0
102
RTVSPost2010PropOp41
 70
     1
102
RTVSPost2010Prop42
 90
       50
102
RTVSPost2010PropOp42
 70
     1
102
RTVSPost2010Prop43
 90
        3
102
RTVSPost2010PropOp43
 70
     1
102
RTVSPost2010Prop44ColorIndex
 90
        5
102
RTVSPost2010Prop44ColorRGB
 90
      255
102
RTVSPost2010PropOp44
 70
     1
102
RTVSPost2010Prop45
280
     0
102
RTVSPost2010PropOp45
 70
     1
102
RTVSPost2010Prop46
 90
       50
102
RTVSPost2010PropOp46
 70
     1
102
RTVSPost2010Prop47
 90
       50
102
RTVSPost2010PropOp47
 70
     1
102
RTVSPost2010Prop48
 90
       50
102
RTVSPost2010PropOp48
 70
     1
102
RTVSPost2010Prop49
280
     0
102
RTVSPost2010PropOp49
 70
     1
102
RTVSPost2010Prop50
 90
       50
102
RTVSPost2010PropOp50
 70
     1
102
RTVSPost2010Prop51ColorIndex
 90
      256
102
RTVSPost2010Prop51ColorRGB
 90
-16777216
102
RTVSPost2010PropOp51
 70
     0
102
RTVSPost2010Prop52
140
1.0
102
RTVSPost2010PropOp52
 70
     0
102
RTVSPost2010Prop53
 90
        2
102
RTVSPost2010PropOp53
 70
     1
102
RTVSPost2010Prop54
  1
strokes_ogs.tif
102
RTVSPost2010PropOp54
 70
     1
102
RTVSPost2010Prop55
280
     0
102
RTVSPost2010PropOp55
 70
     1
102
RTVSPost2010Prop56
140
1.0
102
RTVSPost2010PropOp56
 70
     1
102
RTVSPost2010Prop57
140
1.0
102
RTVSPost2010PropOp57
 70
     1
102
RTVSPropertyOp0
 70
     1
102
RTVSPropertyOp1
 70
     1
102
RTVSPropertyOp2
 70
     1
102
RTVSPropertyOp3
 70
     1
102
RTVSPropertyOp4
 70
     1
102
RTVSPropertyOp5
 70
     1
102
RTVSPropertyOp6
 70
     1
102
RTVSPropertyOp7
 70
     1
102
RTVSPropertyOp8
 70
     1
102
RTVSPropertyOp9
 70
     1
102
RTVSPropertyOp10
 70
     1
102
RTVSPropertyOp11
 70
     1
102
RTVSPropertyOp12
 70
     1
102
RTVSPropertyOp13
 70
     1
102
RTVSPropertyOp14
 70
     1
102
RTVSPropertyOp15
 70
     1
102
RTVSPropertyOp16
 70
     1
102
RTVSPropertyOp17
 70
     1
102
RTVSPropertyOp18
 70
     1
102
RTVSPropertyOp19
 70
     1
102
RTVSPropertyOp20
 70
     1
102
RTVSPropertyOp21
 70
     1
102
RTVSPropertyOp22
 70
     1
102
RTVSPropertyOp23
 70
     1
102
RTVSPropertyOp24
 70
     1
102
RTVSPropertyOp25
 70
     1
102
RTVSPropertyOp26
 70
     1
102
RTVSPropertyOp27
 70
     1
102
RTVSPropertyOp28
 70
     1
102
RTVSPropertyOp29
 70
     1
102
RTVSPropertyOp30
 70
     1
102
RTVSPropertyOp31
 70
     1
102
RTVSPropertyOp32
 70
     1
102
RTVSPropertyOp33
 70
     1
102
RTVSPropertyOp34
 70
     1
102
RTVSPropertyOp35
 70
     1
102
RTVSPropertyOp36
 70
     1
102
RTVSPropertyOp37
 70
     1
102
RTVSPropertyOp38
 70
     1
102
RTVSPropertyOp39
 70
     1
102
RTVSPropertyOp40
 70
     1
102
RTVSPropertyOp41
 70
     1
102
RTVSPropertyOp42
 70
     1
102
RTVSPropertyOp43
 70
     1
102
RTVSPropertyOp44
 70
     1
102
RTVSPropertyOp45
 70
     1
102
RTVSPropertyOp46
 70
     1
102
RTVSPropertyOp47
 70
     1
102
RTVSPropertyOp48
 70
     1
102
RTVSPropertyOp49
 70
     1
102
RTVSPropertyOp50
 70
     1
102
RTVSPropertyOp51
 70
     0
102
RTVSPropertyOp52
 70
     0
102
RTVSPropertyOp53
 70
     1
102
RTVSPropertyOp54
 70
     1
102
RTVSPropertyOp55
 70
     1
102
RTVSPropertyOp56
 70
     1
102
RTVSPropertyOp57
 70
     1
102
RTVSPropertyOp58
 70
     1
102
RTVSPropertyOp59
 70
     1
102
RTVSPropertyOp60
 70
     1
102
RTVSPropertyOp61
 70
     1
102
RTVSPropertyOp62
 70
     1
  0
XRECORD
  5
12049
102
{ACAD_REACTORS
330
12048
102
}
330
12048
100
AcDbXrecord
280
     1
102
RTVSPost2010Prop28
280
     0
102
RTVSPost2010PropOp28
 70
     1
102
RTVSPost2010Prop29
280
     1
102
RTVSPost2010PropOp29
 70
     1
102
RTVSPost2010Prop30
280
     1
102
RTVSPost2010PropOp30
 70
     1
102
RTVSPost2010Prop31
280
     0
102
RTVSPost2010PropOp31
 70
     1
102
RTVSPost2010Prop32
280
     0
102
RTVSPost2010PropOp32
 70
     1
102
RTVSPost2010Prop33
280
     0
102
RTVSPost2010PropOp33
 70
     1
102
RTVSPost2010Prop34
280
     0
102
RTVSPost2010PropOp34
 70
     1
102
RTVSPost2010Prop35
280
     0
102
RTVSPost2010PropOp35
 70
     1
102
RTVSPost2010Prop36
280
     0
102
RTVSPost2010PropOp36
 70
     1
102
RTVSPost2010Prop37
 90
       50
102
RTVSPost2010PropOp37
 70
     1
102
RTVSPost2010Prop38
140
0.0
102
RTVSPost2010PropOp38
 70
     1
102
RTVSPost2010Prop39
140
1.0
102
RTVSPost2010PropOp39
 70
     1
102
RTVSPost2010Prop40
 90
        0
102
RTVSPost2010PropOp40
 70
     1
102
RTVSPost2010Prop41ColorIndex
 90
       18
102
RTVSPost2010Prop41ColorRGB
 90
        0
102
RTVSPost2010PropOp41
 70
     1
102
RTVSPost2010Prop42
 90
       50
102
RTVSPost2010PropOp42
 70
     1
102
RTVSPost2010Prop43
 90
        3
102
RTVSPost2010PropOp43
 70
     1
102
RTVSPost2010Prop44ColorIndex
 90
        5
102
RTVSPost2010Prop44ColorRGB
 90
      255
102
RTVSPost2010PropOp44
 70
     1
102
RTVSPost2010Prop45
280
     0
102
RTVSPost2010PropOp45
 70
     1
102
RTVSPost2010Prop46
 90
       50
102
RTVSPost2010PropOp46
 70
     1
102
RTVSPost2010Prop47
 90
       50
102
RTVSPost2010PropOp47
 70
     1
102
RTVSPost2010Prop48
 90
       50
102
RTVSPost2010PropOp48
 70
     1
102
RTVSPost2010Prop49
280
     0
102
RTVSPost2010PropOp49
 70
     1
102
RTVSPost2010Prop50
 90
       50
102
RTVSPost2010PropOp50
 70
     1
102
RTVSPost2010Prop51ColorIndex
 90
      256
102
RTVSPost2010Prop51ColorRGB
 90
-16777216
102
RTVSPost2010PropOp51
 70
     0
102
RTVSPost2010Prop52
140
1.0
102
RTVSPost2010PropOp52
 70
     0
102
RTVSPost2010Prop53
 90
        2
102
RTVSPost2010PropOp53
 70
     1
102
RTVSPost2010Prop54
  1
strokes_ogs.tif
102
RTVSPost2010PropOp54
 70
     1
102
RTVSPost2010Prop55
280
     0
102
RTVSPost2010PropOp55
 70
     1
102
RTVSPost2010Prop56
140
1.0
102
RTVSPost2010PropOp56
 70
     1
102
RTVSPost2010Prop57
140
1.0
102
RTVSPost2010PropOp57
 70
     1
102
RTVSPropertyOp0
 70
     0
102
RTVSPropertyOp1
 70
     0
102
RTVSPropertyOp2
 70
     0
102
RTVSPropertyOp3
 70
     0
102
RTVSPropertyOp4
 70
     0
102
RTVSPropertyOp5
 70
     0
102
RTVSPropertyOp6
 70
     0
102
RTVSPropertyOp7
 70
     0
102
RTVSPropertyOp8
 70
     0
102
RTVSPropertyOp9
 70
     0
102
RTVSPropertyOp10
 70
     0
102
RTVSPropertyOp11
 70
     0
102
RTVSPropertyOp12
 70
     0
102
RTVSPropertyOp13
 70
     0
102
RTVSPropertyOp14
 70
     2
102
RTVSPropertyOp15
 70
     0
102
RTVSPropertyOp16
 70
     0
102
RTVSPropertyOp17
 70
     0
102
RTVSPropertyOp18
 70
     0
102
RTVSPropertyOp19
 70
     0
102
RTVSPropertyOp20
 70
     0
102
RTVSPropertyOp21
 70
     0
102
RTVSPropertyOp22
 70
     0
102
RTVSPropertyOp23
 70
     0
102
RTVSPropertyOp24
 70
     0
102
RTVSPropertyOp25
 70
     0
102
RTVSPropertyOp26
 70
     0
102
RTVSPropertyOp27
 70
     0
102
RTVSPropertyOp28
 70
     1
102
RTVSPropertyOp29
 70
     1
102
RTVSPropertyOp30
 70
     1
102
RTVSPropertyOp31
 70
     1
102
RTVSPropertyOp32
 70
     1
102
RTVSPropertyOp33
 70
     1
102
RTVSPropertyOp34
 70
     1
102
RTVSPropertyOp35
 70
     1
102
RTVSPropertyOp36
 70
     1
102
RTVSPropertyOp37
 70
     1
102
RTVSPropertyOp38
 70
     1
102
RTVSPropertyOp39
 70
     1
102
RTVSPropertyOp40
 70
     1
102
RTVSPropertyOp41
 70
     1
102
RTVSPropertyOp42
 70
     1
102
RTVSPropertyOp43
 70
     1
102
RTVSPropertyOp44
 70
     1
102
RTVSPropertyOp45
 70
     1
102
RTVSPropertyOp46
 70
     1
102
RTVSPropertyOp47
 70
     1
102
RTVSPropertyOp48
 70
     1
102
RTVSPropertyOp49
 70
     1
102
RTVSPropertyOp50
 70
     1
102
RTVSPropertyOp51
 70
     0
102
RTVSPropertyOp52
 70
     0
102
RTVSPropertyOp53
 70
     1
102
RTVSPropertyOp54
 70
     1
102
RTVSPropertyOp55
 70
     1
102
RTVSPropertyOp56
 70
     1
102
RTVSPropertyOp57
 70
     1
102
RTVSPropertyOp58
 70
     1
102
RTVSPropertyOp59
 70
     1
102
RTVSPropertyOp60
 70
     1
102
RTVSPropertyOp61
 70
     1
102
RTVSPropertyOp62
 70
     1
  0
XRECORD
  5
1203F
102
{ACAD_REACTORS
330
1203E
102
}
330
1203E
100
AcDbXrecord
280
     1
102
RTVSPost2010Prop28
280
     0
102
RTVSPost2010PropOp28
 70
     1
102
RTVSPost2010Prop29
280
     1
102
RTVSPost2010PropOp29
 70
     1
102
RTVSPost2010Prop30
280
     1
102
RTVSPost2010PropOp30
 70
     1
102
RTVSPost2010Prop31
280
     0
102
RTVSPost2010PropOp31
 70
     1
102
RTVSPost2010Prop32
280
     0
102
RTVSPost2010PropOp32
 70
     1
102
RTVSPost2010Prop33
280
     0
102
RTVSPost2010PropOp33
 70
     1
102
RTVSPost2010Prop34
280
     0
102
RTVSPost2010PropOp34
 70
     1
102
RTVSPost2010Prop35
280
     0
102
RTVSPost2010PropOp35
 70
     1
102
RTVSPost2010Prop36
280
     0
102
RTVSPost2010PropOp36
 70
     1
102
RTVSPost2010Prop37
 90
       50
102
RTVSPost2010PropOp37
 70
     1
102
RTVSPost2010Prop38
140
0.0
102
RTVSPost2010PropOp38
 70
     1
102
RTVSPost2010Prop39
140
1.0
102
RTVSPost2010PropOp39
 70
     1
102
RTVSPost2010Prop40
 90
        0
102
RTVSPost2010PropOp40
 70
     1
102
RTVSPost2010Prop41ColorIndex
 90
       18
102
RTVSPost2010Prop41ColorRGB
 90
        0
102
RTVSPost2010PropOp41
 70
     1
102
RTVSPost2010Prop42
 90
       50
102
RTVSPost2010PropOp42
 70
     1
102
RTVSPost2010Prop43
 90
        3
102
RTVSPost2010PropOp43
 70
     1
102
RTVSPost2010Prop44ColorIndex
 90
        5
102
RTVSPost2010Prop44ColorRGB
 90
      255
102
RTVSPost2010PropOp44
 70
     1
102
RTVSPost2010Prop45
280
     0
102
RTVSPost2010PropOp45
 70
     1
102
RTVSPost2010Prop46
 90
       50
102
RTVSPost2010PropOp46
 70
     1
102
RTVSPost2010Prop47
 90
       50
102
RTVSPost2010PropOp47
 70
     1
102
RTVSPost2010Prop48
 90
       50
102
RTVSPost2010PropOp48
 70
     1
102
RTVSPost2010Prop49
280
     0
102
RTVSPost2010PropOp49
 70
     1
102
RTVSPost2010Prop50
 90
       50
102
RTVSPost2010PropOp50
 70
     1
102
RTVSPost2010Prop51ColorIndex
 90
      256
102
RTVSPost2010Prop51ColorRGB
 90
-16777216
102
RTVSPost2010PropOp51
 70
     0
102
RTVSPost2010Prop52
140
1.0
102
RTVSPost2010PropOp52
 70
     0
102
RTVSPost2010Prop53
 90
        2
102
RTVSPost2010PropOp53
 70
     1
102
RTVSPost2010Prop54
  1
strokes_ogs.tif
102
RTVSPost2010PropOp54
 70
     1
102
RTVSPost2010Prop55
280
     0
102
RTVSPost2010PropOp55
 70
     1
102
RTVSPost2010Prop56
140
1.0
102
RTVSPost2010PropOp56
 70
     1
102
RTVSPost2010Prop57
140
1.0
102
RTVSPost2010PropOp57
 70
     1
102
RTVSPropertyOp0
 70
     1
102
RTVSPropertyOp1
 70
     1
102
RTVSPropertyOp2
 70
     1
102
RTVSPropertyOp3
 70
     1
102
RTVSPropertyOp4
 70
     1
102
RTVSPropertyOp5
 70
     1
102
RTVSPropertyOp6
 70
     1
102
RTVSPropertyOp7
 70
     1
102
RTVSPropertyOp8
 70
     1
102
RTVSPropertyOp9
 70
     1
102
RTVSPropertyOp10
 70
     1
102
RTVSPropertyOp11
 70
     1
102
RTVSPropertyOp12
 70
     1
102
RTVSPropertyOp13
 70
     1
102
RTVSPropertyOp14
 70
     1
102
RTVSPropertyOp15
 70
     1
102
RTVSPropertyOp16
 70
     1
102
RTVSPropertyOp17
 70
     1
102
RTVSPropertyOp18
 70
     1
102
RTVSPropertyOp19
 70
     1
102
RTVSPropertyOp20
 70
     1
102
RTVSPropertyOp21
 70
     1
102
RTVSPropertyOp22
 70
     1
102
RTVSPropertyOp23
 70
     1
102
RTVSPropertyOp24
 70
     1
102
RTVSPropertyOp25
 70
     1
102
RTVSPropertyOp26
 70
     1
102
RTVSPropertyOp27
 70
     1
102
RTVSPropertyOp28
 70
     1
102
RTVSPropertyOp29
 70
     1
102
RTVSPropertyOp30
 70
     1
102
RTVSPropertyOp31
 70
     1
102
RTVSPropertyOp32
 70
     1
102
RTVSPropertyOp33
 70
     1
102
RTVSPropertyOp34
 70
     1
102
RTVSPropertyOp35
 70
     1
102
RTVSPropertyOp36
 70
     1
102
RTVSPropertyOp37
 70
     1
102
RTVSPropertyOp38
 70
     1
102
RTVSPropertyOp39
 70
     1
102
RTVSPropertyOp40
 70
     1
102
RTVSPropertyOp41
 70
     1
102
RTVSPropertyOp42
 70
     1
102
RTVSPropertyOp43
 70
     1
102
RTVSPropertyOp44
 70
     1
102
RTVSPropertyOp45
 70
     1
102
RTVSPropertyOp46
 70
     1
102
RTVSPropertyOp47
 70
     1
102
RTVSPropertyOp48
 70
     1
102
RTVSPropertyOp49
 70
     1
102
RTVSPropertyOp50
 70
     1
102
RTVSPropertyOp51
 70
     0
102
RTVSPropertyOp52
 70
     0
102
RTVSPropertyOp53
 70
     1
102
RTVSPropertyOp54
 70
     1
102
RTVSPropertyOp55
 70
     1
102
RTVSPropertyOp56
 70
     1
102
RTVSPropertyOp57
 70
     1
102
RTVSPropertyOp58
 70
     1
102
RTVSPropertyOp59
 70
     1
102
RTVSPropertyOp60
 70
     1
102
RTVSPropertyOp61
 70
     1
102
RTVSPropertyOp62
 70
     1
  0
XRECORD
  5
12023
102
{ACAD_REACTORS
330
12022
102
}
330
12022
100
AcDbXrecord
280
     1
102
RTVSPost2010Prop28
280
     0
102
RTVSPost2010PropOp28
 70
     1
102
RTVSPost2010Prop29
280
     1
102
RTVSPost2010PropOp29
 70
     1
102
RTVSPost2010Prop30
280
     1
102
RTVSPost2010PropOp30
 70
     1
102
RTVSPost2010Prop31
280
     0
102
RTVSPost2010PropOp31
 70
     1
102
RTVSPost2010Prop32
280
     0
102
RTVSPost2010PropOp32
 70
     1
102
RTVSPost2010Prop33
280
     0
102
RTVSPost2010PropOp33
 70
     1
102
RTVSPost2010Prop34
280
     0
102
RTVSPost2010PropOp34
 70
     1
102
RTVSPost2010Prop35
280
     0
102
RTVSPost2010PropOp35
 70
     1
102
RTVSPost2010Prop36
280
     0
102
RTVSPost2010PropOp36
 70
     1
102
RTVSPost2010Prop37
 90
       50
102
RTVSPost2010PropOp37
 70
     1
102
RTVSPost2010Prop38
140
0.0
102
RTVSPost2010PropOp38
 70
     1
102
RTVSPost2010Prop39
140
1.0
102
RTVSPost2010PropOp39
 70
     1
102
RTVSPost2010Prop40
 90
        0
102
RTVSPost2010PropOp40
 70
     1
102
RTVSPost2010Prop41ColorIndex
 90
       18
102
RTVSPost2010Prop41ColorRGB
 90
        0
102
RTVSPost2010PropOp41
 70
     1
102
RTVSPost2010Prop42
 90
       50
102
RTVSPost2010PropOp42
 70
     1
102
RTVSPost2010Prop43
 90
        3
102
RTVSPost2010PropOp43
 70
     1
102
RTVSPost2010Prop44ColorIndex
 90
        5
102
RTVSPost2010Prop44ColorRGB
 90
      255
102
RTVSPost2010PropOp44
 70
     1
102
RTVSPost2010Prop45
280
     0
102
RTVSPost2010PropOp45
 70
     1
102
RTVSPost2010Prop46
 90
       50
102
RTVSPost2010PropOp46
 70
     1
102
RTVSPost2010Prop47
 90
       50
102
RTVSPost2010PropOp47
 70
     1
102
RTVSPost2010Prop48
 90
       50
102
RTVSPost2010PropOp48
 70
     1
102
RTVSPost2010Prop49
280
     0
102
RTVSPost2010PropOp49
 70
     1
102
RTVSPost2010Prop50
 90
       50
102
RTVSPost2010PropOp50
 70
     1
102
RTVSPost2010Prop51ColorIndex
 90
      256
102
RTVSPost2010Prop51ColorRGB
 90
-16777216
102
RTVSPost2010PropOp51
 70
     0
102
RTVSPost2010Prop52
140
1.0
102
RTVSPost2010PropOp52
 70
     0
102
RTVSPost2010Prop53
 90
        2
102
RTVSPost2010PropOp53
 70
     1
102
RTVSPost2010Prop54
  1
strokes_ogs.tif
102
RTVSPost2010PropOp54
 70
     1
102
RTVSPost2010Prop55
280
     0
102
RTVSPost2010PropOp55
 70
     1
102
RTVSPost2010Prop56
140
1.0
102
RTVSPost2010PropOp56
 70
     1
102
RTVSPost2010Prop57
140
1.0
102
RTVSPost2010PropOp57
 70
     1
102
RTVSPropertyOp0
 70
     1
102
RTVSPropertyOp1
 70
     1
102
RTVSPropertyOp2
 70
     1
102
RTVSPropertyOp3
 70
     1
102
RTVSPropertyOp4
 70
     1
102
RTVSPropertyOp5
 70
     1
102
RTVSPropertyOp6
 70
     1
102
RTVSPropertyOp7
 70
     1
102
RTVSPropertyOp8
 70
     1
102
RTVSPropertyOp9
 70
     1
102
RTVSPropertyOp10
 70
     1
102
RTVSPropertyOp11
 70
     1
102
RTVSPropertyOp12
 70
     1
102
RTVSPropertyOp13
 70
     1
102
RTVSPropertyOp14
 70
     1
102
RTVSPropertyOp15
 70
     1
102
RTVSPropertyOp16
 70
     1
102
RTVSPropertyOp17
 70
     1
102
RTVSPropertyOp18
 70
     1
102
RTVSPropertyOp19
 70
     1
102
RTVSPropertyOp20
 70
     1
102
RTVSPropertyOp21
 70
     1
102
RTVSPropertyOp22
 70
     1
102
RTVSPropertyOp23
 70
     1
102
RTVSPropertyOp24
 70
     1
102
RTVSPropertyOp25
 70
     1
102
RTVSPropertyOp26
 70
     1
102
RTVSPropertyOp27
 70
     1
102
RTVSPropertyOp28
 70
     1
102
RTVSPropertyOp29
 70
     1
102
RTVSPropertyOp30
 70
     1
102
RTVSPropertyOp31
 70
     1
102
RTVSPropertyOp32
 70
     1
102
RTVSPropertyOp33
 70
     1
102
RTVSPropertyOp34
 70
     1
102
RTVSPropertyOp35
 70
     1
102
RTVSPropertyOp36
 70
     1
102
RTVSPropertyOp37
 70
     1
102
RTVSPropertyOp38
 70
     1
102
RTVSPropertyOp39
 70
     1
102
RTVSPropertyOp40
 70
     1
102
RTVSPropertyOp41
 70
     1
102
RTVSPropertyOp42
 70
     1
102
RTVSPropertyOp43
 70
     1
102
RTVSPropertyOp44
 70
     1
102
RTVSPropertyOp45
 70
     1
102
RTVSPropertyOp46
 70
     1
102
RTVSPropertyOp47
 70
     1
102
RTVSPropertyOp48
 70
     1
102
RTVSPropertyOp49
 70
     1
102
RTVSPropertyOp50
 70
     1
102
RTVSPropertyOp51
 70
     0
102
RTVSPropertyOp52
 70
     0
102
RTVSPropertyOp53
 70
     1
102
RTVSPropertyOp54
 70
     1
102
RTVSPropertyOp55
 70
     1
102
RTVSPropertyOp56
 70
     1
102
RTVSPropertyOp57
 70
     1
102
RTVSPropertyOp58
 70
     1
102
RTVSPropertyOp59
 70
     1
102
RTVSPropertyOp60
 70
     1
102
RTVSPropertyOp61
 70
     1
102
RTVSPropertyOp62
 70
     1
  0
XRECORD
  5
12025
102
{ACAD_REACTORS
330
12024
102
}
330
12024
100
AcDbXrecord
280
     1
102
RTVSPost2010Prop28
280
     0
102
RTVSPost2010PropOp28
 70
     1
102
RTVSPost2010Prop29
280
     1
102
RTVSPost2010PropOp29
 70
     1
102
RTVSPost2010Prop30
280
     1
102
RTVSPost2010PropOp30
 70
     1
102
RTVSPost2010Prop31
280
     0
102
RTVSPost2010PropOp31
 70
     1
102
RTVSPost2010Prop32
280
     0
102
RTVSPost2010PropOp32
 70
     1
102
RTVSPost2010Prop33
280
     0
102
RTVSPost2010PropOp33
 70
     1
102
RTVSPost2010Prop34
280
     0
102
RTVSPost2010PropOp34
 70
     1
102
RTVSPost2010Prop35
280
     0
102
RTVSPost2010PropOp35
 70
     1
102
RTVSPost2010Prop36
280
     0
102
RTVSPost2010PropOp36
 70
     1
102
RTVSPost2010Prop37
 90
       50
102
RTVSPost2010PropOp37
 70
     1
102
RTVSPost2010Prop38
140
0.0
102
RTVSPost2010PropOp38
 70
     1
102
RTVSPost2010Prop39
140
1.0
102
RTVSPost2010PropOp39
 70
     1
102
RTVSPost2010Prop40
 90
        0
102
RTVSPost2010PropOp40
 70
     1
102
RTVSPost2010Prop41ColorIndex
 90
       18
102
RTVSPost2010Prop41ColorRGB
 90
        0
102
RTVSPost2010PropOp41
 70
     1
102
RTVSPost2010Prop42
 90
       50
102
RTVSPost2010PropOp42
 70
     1
102
RTVSPost2010Prop43
 90
        3
102
RTVSPost2010PropOp43
 70
     1
102
RTVSPost2010Prop44ColorIndex
 90
        5
102
RTVSPost2010Prop44ColorRGB
 90
      255
102
RTVSPost2010PropOp44
 70
     1
102
RTVSPost2010Prop45
280
     0
102
RTVSPost2010PropOp45
 70
     1
102
RTVSPost2010Prop46
 90
       50
102
RTVSPost2010PropOp46
 70
     1
102
RTVSPost2010Prop47
 90
       50
102
RTVSPost2010PropOp47
 70
     1
102
RTVSPost2010Prop48
 90
       50
102
RTVSPost2010PropOp48
 70
     1
102
RTVSPost2010Prop49
280
     0
102
RTVSPost2010PropOp49
 70
     1
102
RTVSPost2010Prop50
 90
       50
102
RTVSPost2010PropOp50
 70
     1
102
RTVSPost2010Prop51ColorIndex
 90
      256
102
RTVSPost2010Prop51ColorRGB
 90
-16777216
102
RTVSPost2010PropOp51
 70
     0
102
RTVSPost2010Prop52
140
1.0
102
RTVSPost2010PropOp52
 70
     0
102
RTVSPost2010Prop53
 90
        2
102
RTVSPost2010PropOp53
 70
     1
102
RTVSPost2010Prop54
  1
strokes_ogs.tif
102
RTVSPost2010PropOp54
 70
     1
102
RTVSPost2010Prop55
280
     0
102
RTVSPost2010PropOp55
 70
     1
102
RTVSPost2010Prop56
140
1.0
102
RTVSPost2010PropOp56
 70
     1
102
RTVSPost2010Prop57
140
1.0
102
RTVSPost2010PropOp57
 70
     1
102
RTVSPropertyOp0
 70
     1
102
RTVSPropertyOp1
 70
     1
102
RTVSPropertyOp2
 70
     1
102
RTVSPropertyOp3
 70
     1
102
RTVSPropertyOp4
 70
     1
102
RTVSPropertyOp5
 70
     1
102
RTVSPropertyOp6
 70
     1
102
RTVSPropertyOp7
 70
     1
102
RTVSPropertyOp8
 70
     1
102
RTVSPropertyOp9
 70
     1
102
RTVSPropertyOp10
 70
     1
102
RTVSPropertyOp11
 70
     1
102
RTVSPropertyOp12
 70
     1
102
RTVSPropertyOp13
 70
     1
102
RTVSPropertyOp14
 70
     1
102
RTVSPropertyOp15
 70
     1
102
RTVSPropertyOp16
 70
     1
102
RTVSPropertyOp17
 70
     1
102
RTVSPropertyOp18
 70
     1
102
RTVSPropertyOp19
 70
     1
102
RTVSPropertyOp20
 70
     1
102
RTVSPropertyOp21
 70
     1
102
RTVSPropertyOp22
 70
     1
102
RTVSPropertyOp23
 70
     1
102
RTVSPropertyOp24
 70
     1
102
RTVSPropertyOp25
 70
     1
102
RTVSPropertyOp26
 70
     1
102
RTVSPropertyOp27
 70
     1
102
RTVSPropertyOp28
 70
     1
102
RTVSPropertyOp29
 70
     1
102
RTVSPropertyOp30
 70
     1
102
RTVSPropertyOp31
 70
     1
102
RTVSPropertyOp32
 70
     1
102
RTVSPropertyOp33
 70
     1
102
RTVSPropertyOp34
 70
     1
102
RTVSPropertyOp35
 70
     1
102
RTVSPropertyOp36
 70
     1
102
RTVSPropertyOp37
 70
     1
102
RTVSPropertyOp38
 70
     1
102
RTVSPropertyOp39
 70
     1
102
RTVSPropertyOp40
 70
     1
102
RTVSPropertyOp41
 70
     1
102
RTVSPropertyOp42
 70
     1
102
RTVSPropertyOp43
 70
     1
102
RTVSPropertyOp44
 70
     1
102
RTVSPropertyOp45
 70
     1
102
RTVSPropertyOp46
 70
     1
102
RTVSPropertyOp47
 70
     1
102
RTVSPropertyOp48
 70
     1
102
RTVSPropertyOp49
 70
     1
102
RTVSPropertyOp50
 70
     1
102
RTVSPropertyOp51
 70
     0
102
RTVSPropertyOp52
 70
     0
102
RTVSPropertyOp53
 70
     1
102
RTVSPropertyOp54
 70
     1
102
RTVSPropertyOp55
 70
     1
102
RTVSPropertyOp56
 70
     1
102
RTVSPropertyOp57
 70
     1
102
RTVSPropertyOp58
 70
     1
102
RTVSPropertyOp59
 70
     1
102
RTVSPropertyOp60
 70
     1
102
RTVSPropertyOp61
 70
     1
102
RTVSPropertyOp62
 70
     1
  0
XRECORD
  5
12027
102
{ACAD_REACTORS
330
12026
102
}
330
12026
100
AcDbXrecord
280
     1
102
RTVSPost2010Prop28
280
     0
102
RTVSPost2010PropOp28
 70
     1
102
RTVSPost2010Prop29
280
     1
102
RTVSPost2010PropOp29
 70
     1
102
RTVSPost2010Prop30
280
     1
102
RTVSPost2010PropOp30
 70
     1
102
RTVSPost2010Prop31
280
     0
102
RTVSPost2010PropOp31
 70
     1
102
RTVSPost2010Prop32
280
     0
102
RTVSPost2010PropOp32
 70
     1
102
RTVSPost2010Prop33
280
     0
102
RTVSPost2010PropOp33
 70
     1
102
RTVSPost2010Prop34
280
     0
102
RTVSPost2010PropOp34
 70
     1
102
RTVSPost2010Prop35
280
     0
102
RTVSPost2010PropOp35
 70
     1
102
RTVSPost2010Prop36
280
     0
102
RTVSPost2010PropOp36
 70
     1
102
RTVSPost2010Prop37
 90
       50
102
RTVSPost2010PropOp37
 70
     1
102
RTVSPost2010Prop38
140
0.0
102
RTVSPost2010PropOp38
 70
     1
102
RTVSPost2010Prop39
140
1.0
102
RTVSPost2010PropOp39
 70
     1
102
RTVSPost2010Prop40
 90
        0
102
RTVSPost2010PropOp40
 70
     1
102
RTVSPost2010Prop41ColorIndex
 90
       18
102
RTVSPost2010Prop41ColorRGB
 90
        0
102
RTVSPost2010PropOp41
 70
     1
102
RTVSPost2010Prop42
 90
       50
102
RTVSPost2010PropOp42
 70
     1
102
RTVSPost2010Prop43
 90
        3
102
RTVSPost2010PropOp43
 70
     1
102
RTVSPost2010Prop44ColorIndex
 90
        5
102
RTVSPost2010Prop44ColorRGB
 90
      255
102
RTVSPost2010PropOp44
 70
     1
102
RTVSPost2010Prop45
280
     0
102
RTVSPost2010PropOp45
 70
     1
102
RTVSPost2010Prop46
 90
       50
102
RTVSPost2010PropOp46
 70
     1
102
RTVSPost2010Prop47
 90
       50
102
RTVSPost2010PropOp47
 70
     1
102
RTVSPost2010Prop48
 90
       50
102
RTVSPost2010PropOp48
 70
     1
102
RTVSPost2010Prop49
280
     0
102
RTVSPost2010PropOp49
 70
     1
102
RTVSPost2010Prop50
 90
       50
102
RTVSPost2010PropOp50
 70
     1
102
RTVSPost2010Prop51ColorIndex
 90
      256
102
RTVSPost2010Prop51ColorRGB
 90
-16777216
102
RTVSPost2010PropOp51
 70
     0
102
RTVSPost2010Prop52
140
1.0
102
RTVSPost2010PropOp52
 70
     0
102
RTVSPost2010Prop53
 90
        2
102
RTVSPost2010PropOp53
 70
     1
102
RTVSPost2010Prop54
  1
strokes_ogs.tif
102
RTVSPost2010PropOp54
 70
     1
102
RTVSPost2010Prop55
280
     0
102
RTVSPost2010PropOp55
 70
     1
102
RTVSPost2010Prop56
140
1.0
102
RTVSPost2010PropOp56
 70
     1
102
RTVSPost2010Prop57
140
1.0
102
RTVSPost2010PropOp57
 70
     1
102
RTVSPropertyOp0
 70
     1
102
RTVSPropertyOp1
 70
     1
102
RTVSPropertyOp2
 70
     1
102
RTVSPropertyOp3
 70
     1
102
RTVSPropertyOp4
 70
     1
102
RTVSPropertyOp5
 70
     1
102
RTVSPropertyOp6
 70
     1
102
RTVSPropertyOp7
 70
     1
102
RTVSPropertyOp8
 70
     1
102
RTVSPropertyOp9
 70
     1
102
RTVSPropertyOp10
 70
     1
102
RTVSPropertyOp11
 70
     1
102
RTVSPropertyOp12
 70
     1
102
RTVSPropertyOp13
 70
     1
102
RTVSPropertyOp14
 70
     1
102
RTVSPropertyOp15
 70
     1
102
RTVSPropertyOp16
 70
     1
102
RTVSPropertyOp17
 70
     1
102
RTVSPropertyOp18
 70
     1
102
RTVSPropertyOp19
 70
     1
102
RTVSPropertyOp20
 70
     1
102
RTVSPropertyOp21
 70
     1
102
RTVSPropertyOp22
 70
     1
102
RTVSPropertyOp23
 70
     1
102
RTVSPropertyOp24
 70
     1
102
RTVSPropertyOp25
 70
     1
102
RTVSPropertyOp26
 70
     1
102
RTVSPropertyOp27
 70
     1
102
RTVSPropertyOp28
 70
     1
102
RTVSPropertyOp29
 70
     1
102
RTVSPropertyOp30
 70
     1
102
RTVSPropertyOp31
 70
     1
102
RTVSPropertyOp32
 70
     1
102
RTVSPropertyOp33
 70
     1
102
RTVSPropertyOp34
 70
     1
102
RTVSPropertyOp35
 70
     1
102
RTVSPropertyOp36
 70
     1
102
RTVSPropertyOp37
 70
     1
102
RTVSPropertyOp38
 70
     1
102
RTVSPropertyOp39
 70
     1
102
RTVSPropertyOp40
 70
     1
102
RTVSPropertyOp41
 70
     1
102
RTVSPropertyOp42
 70
     1
102
RTVSPropertyOp43
 70
     1
102
RTVSPropertyOp44
 70
     1
102
RTVSPropertyOp45
 70
     1
102
RTVSPropertyOp46
 70
     1
102
RTVSPropertyOp47
 70
     1
102
RTVSPropertyOp48
 70
     1
102
RTVSPropertyOp49
 70
     1
102
RTVSPropertyOp50
 70
     1
102
RTVSPropertyOp51
 70
     0
102
RTVSPropertyOp52
 70
     0
102
RTVSPropertyOp53
 70
     1
102
RTVSPropertyOp54
 70
     1
102
RTVSPropertyOp55
 70
     1
102
RTVSPropertyOp56
 70
     1
102
RTVSPropertyOp57
 70
     1
102
RTVSPropertyOp58
 70
     1
102
RTVSPropertyOp59
 70
     1
102
RTVSPropertyOp60
 70
     1
102
RTVSPropertyOp61
 70
     1
102
RTVSPropertyOp62
 70
     1
  0
XRECORD
  5
12029
102
{ACAD_REACTORS
330
12028
102
}
330
12028
100
AcDbXrecord
280
     1
102
RTVSPost2010Prop28
280
     0
102
RTVSPost2010PropOp28
 70
     1
102
RTVSPost2010Prop29
280
     1
102
RTVSPost2010PropOp29
 70
     1
102
RTVSPost2010Prop30
280
     1
102
RTVSPost2010PropOp30
 70
     1
102
RTVSPost2010Prop31
280
     0
102
RTVSPost2010PropOp31
 70
     1
102
RTVSPost2010Prop32
280
     0
102
RTVSPost2010PropOp32
 70
     1
102
RTVSPost2010Prop33
280
     0
102
RTVSPost2010PropOp33
 70
     1
102
RTVSPost2010Prop34
280
     0
102
RTVSPost2010PropOp34
 70
     1
102
RTVSPost2010Prop35
280
     0
102
RTVSPost2010PropOp35
 70
     1
102
RTVSPost2010Prop36
280
     0
102
RTVSPost2010PropOp36
 70
     1
102
RTVSPost2010Prop37
 90
       50
102
RTVSPost2010PropOp37
 70
     1
102
RTVSPost2010Prop38
140
0.0
102
RTVSPost2010PropOp38
 70
     1
102
RTVSPost2010Prop39
140
1.0
102
RTVSPost2010PropOp39
 70
     1
102
RTVSPost2010Prop40
 90
        0
102
RTVSPost2010PropOp40
 70
     1
102
RTVSPost2010Prop41ColorIndex
 90
       18
102
RTVSPost2010Prop41ColorRGB
 90
        0
102
RTVSPost2010PropOp41
 70
     1
102
RTVSPost2010Prop42
 90
       50
102
RTVSPost2010PropOp42
 70
     1
102
RTVSPost2010Prop43
 90
        3
102
RTVSPost2010PropOp43
 70
     1
102
RTVSPost2010Prop44ColorIndex
 90
        5
102
RTVSPost2010Prop44ColorRGB
 90
      255
102
RTVSPost2010PropOp44
 70
     1
102
RTVSPost2010Prop45
280
     0
102
RTVSPost2010PropOp45
 70
     1
102
RTVSPost2010Prop46
 90
       50
102
RTVSPost2010PropOp46
 70
     1
102
RTVSPost2010Prop47
 90
       50
102
RTVSPost2010PropOp47
 70
     1
102
RTVSPost2010Prop48
 90
       50
102
RTVSPost2010PropOp48
 70
     1
102
RTVSPost2010Prop49
280
     0
102
RTVSPost2010PropOp49
 70
     1
102
RTVSPost2010Prop50
 90
       50
102
RTVSPost2010PropOp50
 70
     1
102
RTVSPost2010Prop51ColorIndex
 90
      256
102
RTVSPost2010Prop51ColorRGB
 90
-16777216
102
RTVSPost2010PropOp51
 70
     0
102
RTVSPost2010Prop52
140
1.0
102
RTVSPost2010PropOp52
 70
     0
102
RTVSPost2010Prop53
 90
        2
102
RTVSPost2010PropOp53
 70
     1
102
RTVSPost2010Prop54
  1
strokes_ogs.tif
102
RTVSPost2010PropOp54
 70
     1
102
RTVSPost2010Prop55
280
     0
102
RTVSPost2010PropOp55
 70
     1
102
RTVSPost2010Prop56
140
1.0
102
RTVSPost2010PropOp56
 70
     1
102
RTVSPost2010Prop57
140
1.0
102
RTVSPost2010PropOp57
 70
     1
102
RTVSPropertyOp0
 70
     1
102
RTVSPropertyOp1
 70
     1
102
RTVSPropertyOp2
 70
     1
102
RTVSPropertyOp3
 70
     1
102
RTVSPropertyOp4
 70
     1
102
RTVSPropertyOp5
 70
     1
102
RTVSPropertyOp6
 70
     1
102
RTVSPropertyOp7
 70
     1
102
RTVSPropertyOp8
 70
     1
102
RTVSPropertyOp9
 70
     1
102
RTVSPropertyOp10
 70
     1
102
RTVSPropertyOp11
 70
     1
102
RTVSPropertyOp12
 70
     1
102
RTVSPropertyOp13
 70
     1
102
RTVSPropertyOp14
 70
     1
102
RTVSPropertyOp15
 70
     1
102
RTVSPropertyOp16
 70
     1
102
RTVSPropertyOp17
 70
     1
102
RTVSPropertyOp18
 70
     1
102
RTVSPropertyOp19
 70
     1
102
RTVSPropertyOp20
 70
     1
102
RTVSPropertyOp21
 70
     1
102
RTVSPropertyOp22
 70
     1
102
RTVSPropertyOp23
 70
     1
102
RTVSPropertyOp24
 70
     1
102
RTVSPropertyOp25
 70
     1
102
RTVSPropertyOp26
 70
     1
102
RTVSPropertyOp27
 70
     1
102
RTVSPropertyOp28
 70
     1
102
RTVSPropertyOp29
 70
     1
102
RTVSPropertyOp30
 70
     1
102
RTVSPropertyOp31
 70
     1
102
RTVSPropertyOp32
 70
     1
102
RTVSPropertyOp33
 70
     1
102
RTVSPropertyOp34
 70
     1
102
RTVSPropertyOp35
 70
     1
102
RTVSPropertyOp36
 70
     1
102
RTVSPropertyOp37
 70
     1
102
RTVSPropertyOp38
 70
     1
102
RTVSPropertyOp39
 70
     1
102
RTVSPropertyOp40
 70
     1
102
RTVSPropertyOp41
 70
     1
102
RTVSPropertyOp42
 70
     1
102
RTVSPropertyOp43
 70
     1
102
RTVSPropertyOp44
 70
     1
102
RTVSPropertyOp45
 70
     1
102
RTVSPropertyOp46
 70
     1
102
RTVSPropertyOp47
 70
     1
102
RTVSPropertyOp48
 70
     1
102
RTVSPropertyOp49
 70
     1
102
RTVSPropertyOp50
 70
     1
102
RTVSPropertyOp51
 70
     0
102
RTVSPropertyOp52
 70
     0
102
RTVSPropertyOp53
 70
     1
102
RTVSPropertyOp54
 70
     1
102
RTVSPropertyOp55
 70
     1
102
RTVSPropertyOp56
 70
     1
102
RTVSPropertyOp57
 70
     1
102
RTVSPropertyOp58
 70
     1
102
RTVSPropertyOp59
 70
     1
102
RTVSPropertyOp60
 70
     1
102
RTVSPropertyOp61
 70
     1
102
RTVSPropertyOp62
 70
     1
  0
XRECORD
  5
12031
102
{ACAD_REACTORS
330
12030
102
}
330
12030
100
AcDbXrecord
280
     1
102
RTVSPost2010Prop28
280
     0
102
RTVSPost2010PropOp28
 70
     1
102
RTVSPost2010Prop29
280
     1
102
RTVSPost2010PropOp29
 70
     1
102
RTVSPost2010Prop30
280
     1
102
RTVSPost2010PropOp30
 70
     1
102
RTVSPost2010Prop31
280
     0
102
RTVSPost2010PropOp31
 70
     1
102
RTVSPost2010Prop32
280
     0
102
RTVSPost2010PropOp32
 70
     1
102
RTVSPost2010Prop33
280
     0
102
RTVSPost2010PropOp33
 70
     1
102
RTVSPost2010Prop34
280
     0
102
RTVSPost2010PropOp34
 70
     1
102
RTVSPost2010Prop35
280
     0
102
RTVSPost2010PropOp35
 70
     1
102
RTVSPost2010Prop36
280
     0
102
RTVSPost2010PropOp36
 70
     1
102
RTVSPost2010Prop37
 90
       50
102
RTVSPost2010PropOp37
 70
     1
102
RTVSPost2010Prop38
140
0.0
102
RTVSPost2010PropOp38
 70
     1
102
RTVSPost2010Prop39
140
1.0
102
RTVSPost2010PropOp39
 70
     1
102
RTVSPost2010Prop40
 90
        0
102
RTVSPost2010PropOp40
 70
     1
102
RTVSPost2010Prop41ColorIndex
 90
       18
102
RTVSPost2010Prop41ColorRGB
 90
        0
102
RTVSPost2010PropOp41
 70
     1
102
RTVSPost2010Prop42
 90
       50
102
RTVSPost2010PropOp42
 70
     1
102
RTVSPost2010Prop43
 90
        3
102
RTVSPost2010PropOp43
 70
     1
102
RTVSPost2010Prop44ColorIndex
 90
        5
102
RTVSPost2010Prop44ColorRGB
 90
      255
102
RTVSPost2010PropOp44
 70
     1
102
RTVSPost2010Prop45
280
     0
102
RTVSPost2010PropOp45
 70
     1
102
RTVSPost2010Prop46
 90
       50
102
RTVSPost2010PropOp46
 70
     1
102
RTVSPost2010Prop47
 90
       50
102
RTVSPost2010PropOp47
 70
     1
102
RTVSPost2010Prop48
 90
       50
102
RTVSPost2010PropOp48
 70
     1
102
RTVSPost2010Prop49
280
     0
102
RTVSPost2010PropOp49
 70
     1
102
RTVSPost2010Prop50
 90
       50
102
RTVSPost2010PropOp50
 70
     1
102
RTVSPost2010Prop51ColorIndex
 90
      256
102
RTVSPost2010Prop51ColorRGB
 90
-16777216
102
RTVSPost2010PropOp51
 70
     0
102
RTVSPost2010Prop52
140
1.0
102
RTVSPost2010PropOp52
 70
     0
102
RTVSPost2010Prop53
 90
        2
102
RTVSPost2010PropOp53
 70
     1
102
RTVSPost2010Prop54
  1
strokes_ogs.tif
102
RTVSPost2010PropOp54
 70
     1
102
RTVSPost2010Prop55
280
     0
102
RTVSPost2010PropOp55
 70
     1
102
RTVSPost2010Prop56
140
1.0
102
RTVSPost2010PropOp56
 70
     1
102
RTVSPost2010Prop57
140
1.0
102
RTVSPost2010PropOp57
 70
     1
102
RTVSPropertyOp0
 70
     1
102
RTVSPropertyOp1
 70
     1
102
RTVSPropertyOp2
 70
     1
102
RTVSPropertyOp3
 70
     1
102
RTVSPropertyOp4
 70
     1
102
RTVSPropertyOp5
 70
     1
102
RTVSPropertyOp6
 70
     1
102
RTVSPropertyOp7
 70
     1
102
RTVSPropertyOp8
 70
     1
102
RTVSPropertyOp9
 70
     1
102
RTVSPropertyOp10
 70
     1
102
RTVSPropertyOp11
 70
     1
102
RTVSPropertyOp12
 70
     1
102
RTVSPropertyOp13
 70
     1
102
RTVSPropertyOp14
 70
     1
102
RTVSPropertyOp15
 70
     1
102
RTVSPropertyOp16
 70
     1
102
RTVSPropertyOp17
 70
     1
102
RTVSPropertyOp18
 70
     1
102
RTVSPropertyOp19
 70
     1
102
RTVSPropertyOp20
 70
     1
102
RTVSPropertyOp21
 70
     1
102
RTVSPropertyOp22
 70
     1
102
RTVSPropertyOp23
 70
     1
102
RTVSPropertyOp24
 70
     1
102
RTVSPropertyOp25
 70
     1
102
RTVSPropertyOp26
 70
     1
102
RTVSPropertyOp27
 70
     1
102
RTVSPropertyOp28
 70
     1
102
RTVSPropertyOp29
 70
     1
102
RTVSPropertyOp30
 70
     1
102
RTVSPropertyOp31
 70
     1
102
RTVSPropertyOp32
 70
     1
102
RTVSPropertyOp33
 70
     1
102
RTVSPropertyOp34
 70
     1
102
RTVSPropertyOp35
 70
     1
102
RTVSPropertyOp36
 70
     1
102
RTVSPropertyOp37
 70
     1
102
RTVSPropertyOp38
 70
     1
102
RTVSPropertyOp39
 70
     1
102
RTVSPropertyOp40
 70
     1
102
RTVSPropertyOp41
 70
     1
102
RTVSPropertyOp42
 70
     1
102
RTVSPropertyOp43
 70
     1
102
RTVSPropertyOp44
 70
     1
102
RTVSPropertyOp45
 70
     1
102
RTVSPropertyOp46
 70
     1
102
RTVSPropertyOp47
 70
     1
102
RTVSPropertyOp48
 70
     1
102
RTVSPropertyOp49
 70
     1
102
RTVSPropertyOp50
 70
     1
102
RTVSPropertyOp51
 70
     0
102
RTVSPropertyOp52
 70
     0
102
RTVSPropertyOp53
 70
     1
102
RTVSPropertyOp54
 70
     1
102
RTVSPropertyOp55
 70
     1
102
RTVSPropertyOp56
 70
     1
102
RTVSPropertyOp57
 70
     1
102
RTVSPropertyOp58
 70
     1
102
RTVSPropertyOp59
 70
     1
102
RTVSPropertyOp60
 70
     1
102
RTVSPropertyOp61
 70
     1
102
RTVSPropertyOp62
 70
     1
  0
XRECORD
  5
12045
102
{ACAD_REACTORS
330
12044
102
}
330
12044
100
AcDbXrecord
280
     1
102
RTVSPost2010Prop28
280
     0
102
RTVSPost2010PropOp28
 70
     1
102
RTVSPost2010Prop29
280
     1
102
RTVSPost2010PropOp29
 70
     1
102
RTVSPost2010Prop30
280
     1
102
RTVSPost2010PropOp30
 70
     1
102
RTVSPost2010Prop31
280
     0
102
RTVSPost2010PropOp31
 70
     1
102
RTVSPost2010Prop32
280
     0
102
RTVSPost2010PropOp32
 70
     1
102
RTVSPost2010Prop33
280
     0
102
RTVSPost2010PropOp33
 70
     1
102
RTVSPost2010Prop34
280
     0
102
RTVSPost2010PropOp34
 70
     1
102
RTVSPost2010Prop35
280
     0
102
RTVSPost2010PropOp35
 70
     1
102
RTVSPost2010Prop36
280
     0
102
RTVSPost2010PropOp36
 70
     1
102
RTVSPost2010Prop37
 90
       50
102
RTVSPost2010PropOp37
 70
     1
102
RTVSPost2010Prop38
140
0.0
102
RTVSPost2010PropOp38
 70
     1
102
RTVSPost2010Prop39
140
1.0
102
RTVSPost2010PropOp39
 70
     1
102
RTVSPost2010Prop40
 90
        0
102
RTVSPost2010PropOp40
 70
     1
102
RTVSPost2010Prop41ColorIndex
 90
       18
102
RTVSPost2010Prop41ColorRGB
 90
        0
102
RTVSPost2010PropOp41
 70
     1
102
RTVSPost2010Prop42
 90
       50
102
RTVSPost2010PropOp42
 70
     1
102
RTVSPost2010Prop43
 90
        3
102
RTVSPost2010PropOp43
 70
     1
102
RTVSPost2010Prop44ColorIndex
 90
        5
102
RTVSPost2010Prop44ColorRGB
 90
      255
102
RTVSPost2010PropOp44
 70
     1
102
RTVSPost2010Prop45
280
     0
102
RTVSPost2010PropOp45
 70
     1
102
RTVSPost2010Prop46
 90
       50
102
RTVSPost2010PropOp46
 70
     1
102
RTVSPost2010Prop47
 90
       50
102
RTVSPost2010PropOp47
 70
     1
102
RTVSPost2010Prop48
 90
       50
102
RTVSPost2010PropOp48
 70
     1
102
RTVSPost2010Prop49
280
     0
102
RTVSPost2010PropOp49
 70
     1
102
RTVSPost2010Prop50
 90
       50
102
RTVSPost2010PropOp50
 70
     1
102
RTVSPost2010Prop51ColorIndex
 90
      256
102
RTVSPost2010Prop51ColorRGB
 90
-16777216
102
RTVSPost2010PropOp51
 70
     0
102
RTVSPost2010Prop52
140
1.0
102
RTVSPost2010PropOp52
 70
     0
102
RTVSPost2010Prop53
 90
        2
102
RTVSPost2010PropOp53
 70
     1
102
RTVSPost2010Prop54
  1
strokes_ogs.tif
102
RTVSPost2010PropOp54
 70
     1
102
RTVSPost2010Prop55
280
     0
102
RTVSPost2010PropOp55
 70
     1
102
RTVSPost2010Prop56
140
1.0
102
RTVSPost2010PropOp56
 70
     1
102
RTVSPost2010Prop57
140
1.0
102
RTVSPost2010PropOp57
 70
     1
102
RTVSPropertyOp0
 70
     0
102
RTVSPropertyOp1
 70
     0
102
RTVSPropertyOp2
 70
     0
102
RTVSPropertyOp3
 70
     0
102
RTVSPropertyOp4
 70
     0
102
RTVSPropertyOp5
 70
     0
102
RTVSPropertyOp6
 70
     0
102
RTVSPropertyOp7
 70
     0
102
RTVSPropertyOp8
 70
     0
102
RTVSPropertyOp9
 70
     0
102
RTVSPropertyOp10
 70
     0
102
RTVSPropertyOp11
 70
     0
102
RTVSPropertyOp12
 70
     0
102
RTVSPropertyOp13
 70
     0
102
RTVSPropertyOp14
 70
     2
102
RTVSPropertyOp15
 70
     0
102
RTVSPropertyOp16
 70
     0
102
RTVSPropertyOp17
 70
     0
102
RTVSPropertyOp18
 70
     0
102
RTVSPropertyOp19
 70
     0
102
RTVSPropertyOp20
 70
     0
102
RTVSPropertyOp21
 70
     0
102
RTVSPropertyOp22
 70
     0
102
RTVSPropertyOp23
 70
     0
102
RTVSPropertyOp24
 70
     0
102
RTVSPropertyOp25
 70
     0
102
RTVSPropertyOp26
 70
     0
102
RTVSPropertyOp27
 70
     0
102
RTVSPropertyOp28
 70
     1
102
RTVSPropertyOp29
 70
     1
102
RTVSPropertyOp30
 70
     1
102
RTVSPropertyOp31
 70
     1
102
RTVSPropertyOp32
 70
     1
102
RTVSPropertyOp33
 70
     1
102
RTVSPropertyOp34
 70
     1
102
RTVSPropertyOp35
 70
     1
102
RTVSPropertyOp36
 70
     1
102
RTVSPropertyOp37
 70
     1
102
RTVSPropertyOp38
 70
     1
102
RTVSPropertyOp39
 70
     1
102
RTVSPropertyOp40
 70
     1
102
RTVSPropertyOp41
 70
     1
102
RTVSPropertyOp42
 70
     1
102
RTVSPropertyOp43
 70
     1
102
RTVSPropertyOp44
 70
     1
102
RTVSPropertyOp45
 70
     1
102
RTVSPropertyOp46
 70
     1
102
RTVSPropertyOp47
 70
     1
102
RTVSPropertyOp48
 70
     1
102
RTVSPropertyOp49
 70
     1
102
RTVSPropertyOp50
 70
     1
102
RTVSPropertyOp51
 70
     0
102
RTVSPropertyOp52
 70
     0
102
RTVSPropertyOp53
 70
     1
102
RTVSPropertyOp54
 70
     1
102
RTVSPropertyOp55
 70
     1
102
RTVSPropertyOp56
 70
     1
102
RTVSPropertyOp57
 70
     1
102
RTVSPropertyOp58
 70
     1
102
RTVSPropertyOp59
 70
     1
102
RTVSPropertyOp60
 70
     1
102
RTVSPropertyOp61
 70
     1
102
RTVSPropertyOp62
 70
     1
  0
XRECORD
  5
1203D
102
{ACAD_REACTORS
330
1203C
102
}
330
1203C
100
AcDbXrecord
280
     1
102
RTVSPost2010Prop28
280
     0
102
RTVSPost2010PropOp28
 70
     1
102
RTVSPost2010Prop29
280
     1
102
RTVSPost2010PropOp29
 70
     1
102
RTVSPost2010Prop30
280
     1
102
RTVSPost2010PropOp30
 70
     1
102
RTVSPost2010Prop31
280
     0
102
RTVSPost2010PropOp31
 70
     1
102
RTVSPost2010Prop32
280
     0
102
RTVSPost2010PropOp32
 70
     1
102
RTVSPost2010Prop33
280
     0
102
RTVSPost2010PropOp33
 70
     1
102
RTVSPost2010Prop34
280
     0
102
RTVSPost2010PropOp34
 70
     1
102
RTVSPost2010Prop35
280
     0
102
RTVSPost2010PropOp35
 70
     1
102
RTVSPost2010Prop36
280
     0
102
RTVSPost2010PropOp36
 70
     1
102
RTVSPost2010Prop37
 90
       50
102
RTVSPost2010PropOp37
 70
     1
102
RTVSPost2010Prop38
140
0.0
102
RTVSPost2010PropOp38
 70
     1
102
RTVSPost2010Prop39
140
1.0
102
RTVSPost2010PropOp39
 70
     1
102
RTVSPost2010Prop40
 90
        0
102
RTVSPost2010PropOp40
 70
     1
102
RTVSPost2010Prop41ColorIndex
 90
       18
102
RTVSPost2010Prop41ColorRGB
 90
        0
102
RTVSPost2010PropOp41
 70
     1
102
RTVSPost2010Prop42
 90
       50
102
RTVSPost2010PropOp42
 70
     1
102
RTVSPost2010Prop43
 90
        3
102
RTVSPost2010PropOp43
 70
     1
102
RTVSPost2010Prop44ColorIndex
 90
        5
102
RTVSPost2010Prop44ColorRGB
 90
      255
102
RTVSPost2010PropOp44
 70
     1
102
RTVSPost2010Prop45
280
     0
102
RTVSPost2010PropOp45
 70
     1
102
RTVSPost2010Prop46
 90
       50
102
RTVSPost2010PropOp46
 70
     1
102
RTVSPost2010Prop47
 90
       50
102
RTVSPost2010PropOp47
 70
     1
102
RTVSPost2010Prop48
 90
       50
102
RTVSPost2010PropOp48
 70
     1
102
RTVSPost2010Prop49
280
     0
102
RTVSPost2010PropOp49
 70
     1
102
RTVSPost2010Prop50
 90
       50
102
RTVSPost2010PropOp50
 70
     1
102
RTVSPost2010Prop51ColorIndex
 90
      256
102
RTVSPost2010Prop51ColorRGB
 90
-16777216
102
RTVSPost2010PropOp51
 70
     0
102
RTVSPost2010Prop52
140
1.0
102
RTVSPost2010PropOp52
 70
     0
102
RTVSPost2010Prop53
 90
        2
102
RTVSPost2010PropOp53
 70
     1
102
RTVSPost2010Prop54
  1
strokes_ogs.tif
102
RTVSPost2010PropOp54
 70
     1
102
RTVSPost2010Prop55
280
     0
102
RTVSPost2010PropOp55
 70
     1
102
RTVSPost2010Prop56
140
1.0
102
RTVSPost2010PropOp56
 70
     1
102
RTVSPost2010Prop57
140
1.0
102
RTVSPost2010PropOp57
 70
     1
102
RTVSPropertyOp0
 70
     1
102
RTVSPropertyOp1
 70
     1
102
RTVSPropertyOp2
 70
     1
102
RTVSPropertyOp3
 70
     1
102
RTVSPropertyOp4
 70
     1
102
RTVSPropertyOp5
 70
     1
102
RTVSPropertyOp6
 70
     1
102
RTVSPropertyOp7
 70
     1
102
RTVSPropertyOp8
 70
     1
102
RTVSPropertyOp9
 70
     1
102
RTVSPropertyOp10
 70
     1
102
RTVSPropertyOp11
 70
     1
102
RTVSPropertyOp12
 70
     1
102
RTVSPropertyOp13
 70
     1
102
RTVSPropertyOp14
 70
     1
102
RTVSPropertyOp15
 70
     1
102
RTVSPropertyOp16
 70
     1
102
RTVSPropertyOp17
 70
     1
102
RTVSPropertyOp18
 70
     1
102
RTVSPropertyOp19
 70
     1
102
RTVSPropertyOp20
 70
     1
102
RTVSPropertyOp21
 70
     1
102
RTVSPropertyOp22
 70
     1
102
RTVSPropertyOp23
 70
     1
102
RTVSPropertyOp24
 70
     1
102
RTVSPropertyOp25
 70
     1
102
RTVSPropertyOp26
 70
     1
102
RTVSPropertyOp27
 70
     1
102
RTVSPropertyOp28
 70
     1
102
RTVSPropertyOp29
 70
     1
102
RTVSPropertyOp30
 70
     1
102
RTVSPropertyOp31
 70
     1
102
RTVSPropertyOp32
 70
     1
102
RTVSPropertyOp33
 70
     1
102
RTVSPropertyOp34
 70
     1
102
RTVSPropertyOp35
 70
     1
102
RTVSPropertyOp36
 70
     1
102
RTVSPropertyOp37
 70
     1
102
RTVSPropertyOp38
 70
     1
102
RTVSPropertyOp39
 70
     1
102
RTVSPropertyOp40
 70
     1
102
RTVSPropertyOp41
 70
     1
102
RTVSPropertyOp42
 70
     1
102
RTVSPropertyOp43
 70
     1
102
RTVSPropertyOp44
 70
     1
102
RTVSPropertyOp45
 70
     1
102
RTVSPropertyOp46
 70
     1
102
RTVSPropertyOp47
 70
     1
102
RTVSPropertyOp48
 70
     1
102
RTVSPropertyOp49
 70
     1
102
RTVSPropertyOp50
 70
     1
102
RTVSPropertyOp51
 70
     0
102
RTVSPropertyOp52
 70
     0
102
RTVSPropertyOp53
 70
     1
102
RTVSPropertyOp54
 70
     1
102
RTVSPropertyOp55
 70
     1
102
RTVSPropertyOp56
 70
     1
102
RTVSPropertyOp57
 70
     1
102
RTVSPropertyOp58
 70
     1
102
RTVSPropertyOp59
 70
     1
102
RTVSPropertyOp60
 70
     1
102
RTVSPropertyOp61
 70
     1
102
RTVSPropertyOp62
 70
     1
  0
XRECORD
  5
12047
102
{ACAD_REACTORS
330
12046
102
}
330
12046
100
AcDbXrecord
280
     1
102
RTVSPost2010Prop28
280
     0
102
RTVSPost2010PropOp28
 70
     1
102
RTVSPost2010Prop29
280
     1
102
RTVSPost2010PropOp29
 70
     1
102
RTVSPost2010Prop30
280
     1
102
RTVSPost2010PropOp30
 70
     1
102
RTVSPost2010Prop31
280
     0
102
RTVSPost2010PropOp31
 70
     1
102
RTVSPost2010Prop32
280
     0
102
RTVSPost2010PropOp32
 70
     1
102
RTVSPost2010Prop33
280
     0
102
RTVSPost2010PropOp33
 70
     1
102
RTVSPost2010Prop34
280
     0
102
RTVSPost2010PropOp34
 70
     1
102
RTVSPost2010Prop35
280
     0
102
RTVSPost2010PropOp35
 70
     1
102
RTVSPost2010Prop36
280
     0
102
RTVSPost2010PropOp36
 70
     1
102
RTVSPost2010Prop37
 90
       50
102
RTVSPost2010PropOp37
 70
     1
102
RTVSPost2010Prop38
140
0.0
102
RTVSPost2010PropOp38
 70
     1
102
RTVSPost2010Prop39
140
1.0
102
RTVSPost2010PropOp39
 70
     1
102
RTVSPost2010Prop40
 90
        0
102
RTVSPost2010PropOp40
 70
     1
102
RTVSPost2010Prop41ColorIndex
 90
       18
102
RTVSPost2010Prop41ColorRGB
 90
        0
102
RTVSPost2010PropOp41
 70
     1
102
RTVSPost2010Prop42
 90
       50
102
RTVSPost2010PropOp42
 70
     1
102
RTVSPost2010Prop43
 90
        3
102
RTVSPost2010PropOp43
 70
     1
102
RTVSPost2010Prop44ColorIndex
 90
        5
102
RTVSPost2010Prop44ColorRGB
 90
      255
102
RTVSPost2010PropOp44
 70
     1
102
RTVSPost2010Prop45
280
     0
102
RTVSPost2010PropOp45
 70
     1
102
RTVSPost2010Prop46
 90
       50
102
RTVSPost2010PropOp46
 70
     1
102
RTVSPost2010Prop47
 90
       50
102
RTVSPost2010PropOp47
 70
     1
102
RTVSPost2010Prop48
 90
       50
102
RTVSPost2010PropOp48
 70
     1
102
RTVSPost2010Prop49
280
     0
102
RTVSPost2010PropOp49
 70
     1
102
RTVSPost2010Prop50
 90
       50
102
RTVSPost2010PropOp50
 70
     1
102
RTVSPost2010Prop51ColorIndex
 90
      256
102
RTVSPost2010Prop51ColorRGB
 90
-16777216
102
RTVSPost2010PropOp51
 70
     0
102
RTVSPost2010Prop52
140
1.0
102
RTVSPost2010PropOp52
 70
     0
102
RTVSPost2010Prop53
 90
        2
102
RTVSPost2010PropOp53
 70
     1
102
RTVSPost2010Prop54
  1
strokes_ogs.tif
102
RTVSPost2010PropOp54
 70
     1
102
RTVSPost2010Prop55
280
     0
102
RTVSPost2010PropOp55
 70
     1
102
RTVSPost2010Prop56
140
1.0
102
RTVSPost2010PropOp56
 70
     1
102
RTVSPost2010Prop57
140
1.0
102
RTVSPost2010PropOp57
 70
     1
102
RTVSPropertyOp0
 70
     0
102
RTVSPropertyOp1
 70
     0
102
RTVSPropertyOp2
 70
     0
102
RTVSPropertyOp3
 70
     0
102
RTVSPropertyOp4
 70
     0
102
RTVSPropertyOp5
 70
     0
102
RTVSPropertyOp6
 70
     0
102
RTVSPropertyOp7
 70
     0
102
RTVSPropertyOp8
 70
     0
102
RTVSPropertyOp9
 70
     0
102
RTVSPropertyOp10
 70
     0
102
RTVSPropertyOp11
 70
     0
102
RTVSPropertyOp12
 70
     0
102
RTVSPropertyOp13
 70
     0
102
RTVSPropertyOp14
 70
     2
102
RTVSPropertyOp15
 70
     0
102
RTVSPropertyOp16
 70
     0
102
RTVSPropertyOp17
 70
     0
102
RTVSPropertyOp18
 70
     0
102
RTVSPropertyOp19
 70
     0
102
RTVSPropertyOp20
 70
     0
102
RTVSPropertyOp21
 70
     0
102
RTVSPropertyOp22
 70
     0
102
RTVSPropertyOp23
 70
     0
102
RTVSPropertyOp24
 70
     0
102
RTVSPropertyOp25
 70
     0
102
RTVSPropertyOp26
 70
     0
102
RTVSPropertyOp27
 70
     0
102
RTVSPropertyOp28
 70
     1
102
RTVSPropertyOp29
 70
     1
102
RTVSPropertyOp30
 70
     1
102
RTVSPropertyOp31
 70
     1
102
RTVSPropertyOp32
 70
     1
102
RTVSPropertyOp33
 70
     1
102
RTVSPropertyOp34
 70
     1
102
RTVSPropertyOp35
 70
     1
102
RTVSPropertyOp36
 70
     1
102
RTVSPropertyOp37
 70
     1
102
RTVSPropertyOp38
 70
     1
102
RTVSPropertyOp39
 70
     1
102
RTVSPropertyOp40
 70
     1
102
RTVSPropertyOp41
 70
     1
102
RTVSPropertyOp42
 70
     1
102
RTVSPropertyOp43
 70
     1
102
RTVSPropertyOp44
 70
     1
102
RTVSPropertyOp45
 70
     1
102
RTVSPropertyOp46
 70
     1
102
RTVSPropertyOp47
 70
     1
102
RTVSPropertyOp48
 70
     1
102
RTVSPropertyOp49
 70
     1
102
RTVSPropertyOp50
 70
     1
102
RTVSPropertyOp51
 70
     0
102
RTVSPropertyOp52
 70
     0
102
RTVSPropertyOp53
 70
     1
102
RTVSPropertyOp54
 70
     1
102
RTVSPropertyOp55
 70
     1
102
RTVSPropertyOp56
 70
     1
102
RTVSPropertyOp57
 70
     1
102
RTVSPropertyOp58
 70
     1
102
RTVSPropertyOp59
 70
     1
102
RTVSPropertyOp60
 70
     1
102
RTVSPropertyOp61
 70
     1
102
RTVSPropertyOp62
 70
     1
  0
XRECORD
  5
12035
102
{ACAD_REACTORS
330
12034
102
}
330
12034
100
AcDbXrecord
280
     1
102
RTVSPost2010Prop28
280
     0
102
RTVSPost2010PropOp28
 70
     1
102
RTVSPost2010Prop29
280
     1
102
RTVSPost2010PropOp29
 70
     1
102
RTVSPost2010Prop30
280
     1
102
RTVSPost2010PropOp30
 70
     1
102
RTVSPost2010Prop31
280
     0
102
RTVSPost2010PropOp31
 70
     1
102
RTVSPost2010Prop32
280
     0
102
RTVSPost2010PropOp32
 70
     1
102
RTVSPost2010Prop33
280
     0
102
RTVSPost2010PropOp33
 70
     1
102
RTVSPost2010Prop34
280
     0
102
RTVSPost2010PropOp34
 70
     1
102
RTVSPost2010Prop35
280
     0
102
RTVSPost2010PropOp35
 70
     1
102
RTVSPost2010Prop36
280
     0
102
RTVSPost2010PropOp36
 70
     1
102
RTVSPost2010Prop37
 90
       50
102
RTVSPost2010PropOp37
 70
     1
102
RTVSPost2010Prop38
140
0.0
102
RTVSPost2010PropOp38
 70
     1
102
RTVSPost2010Prop39
140
1.0
102
RTVSPost2010PropOp39
 70
     1
102
RTVSPost2010Prop40
 90
        0
102
RTVSPost2010PropOp40
 70
     1
102
RTVSPost2010Prop41ColorIndex
 90
       18
102
RTVSPost2010Prop41ColorRGB
 90
        0
102
RTVSPost2010PropOp41
 70
     1
102
RTVSPost2010Prop42
 90
       50
102
RTVSPost2010PropOp42
 70
     1
102
RTVSPost2010Prop43
 90
        3
102
RTVSPost2010PropOp43
 70
     1
102
RTVSPost2010Prop44ColorIndex
 90
        5
102
RTVSPost2010Prop44ColorRGB
 90
      255
102
RTVSPost2010PropOp44
 70
     1
102
RTVSPost2010Prop45
280
     0
102
RTVSPost2010PropOp45
 70
     1
102
RTVSPost2010Prop46
 90
       50
102
RTVSPost2010PropOp46
 70
     1
102
RTVSPost2010Prop47
 90
       50
102
RTVSPost2010PropOp47
 70
     1
102
RTVSPost2010Prop48
 90
       50
102
RTVSPost2010PropOp48
 70
     1
102
RTVSPost2010Prop49
280
     0
102
RTVSPost2010PropOp49
 70
     1
102
RTVSPost2010Prop50
 90
       50
102
RTVSPost2010PropOp50
 70
     1
102
RTVSPost2010Prop51ColorIndex
 90
      256
102
RTVSPost2010Prop51ColorRGB
 90
-16777216
102
RTVSPost2010PropOp51
 70
     0
102
RTVSPost2010Prop52
140
1.0
102
RTVSPost2010PropOp52
 70
     0
102
RTVSPost2010Prop53
 90
        2
102
RTVSPost2010PropOp53
 70
     1
102
RTVSPost2010Prop54
  1
strokes_ogs.tif
102
RTVSPost2010PropOp54
 70
     1
102
RTVSPost2010Prop55
280
     0
102
RTVSPost2010PropOp55
 70
     1
102
RTVSPost2010Prop56
140
1.0
102
RTVSPost2010PropOp56
 70
     1
102
RTVSPost2010Prop57
140
1.0
102
RTVSPost2010PropOp57
 70
     1
102
RTVSPropertyOp0
 70
     1
102
RTVSPropertyOp1
 70
     1
102
RTVSPropertyOp2
 70
     1
102
RTVSPropertyOp3
 70
     1
102
RTVSPropertyOp4
 70
     1
102
RTVSPropertyOp5
 70
     1
102
RTVSPropertyOp6
 70
     1
102
RTVSPropertyOp7
 70
     1
102
RTVSPropertyOp8
 70
     1
102
RTVSPropertyOp9
 70
     1
102
RTVSPropertyOp10
 70
     1
102
RTVSPropertyOp11
 70
     1
102
RTVSPropertyOp12
 70
     1
102
RTVSPropertyOp13
 70
     1
102
RTVSPropertyOp14
 70
     1
102
RTVSPropertyOp15
 70
     1
102
RTVSPropertyOp16
 70
     1
102
RTVSPropertyOp17
 70
     1
102
RTVSPropertyOp18
 70
     1
102
RTVSPropertyOp19
 70
     1
102
RTVSPropertyOp20
 70
     1
102
RTVSPropertyOp21
 70
     1
102
RTVSPropertyOp22
 70
     1
102
RTVSPropertyOp23
 70
     1
102
RTVSPropertyOp24
 70
     1
102
RTVSPropertyOp25
 70
     1
102
RTVSPropertyOp26
 70
     1
102
RTVSPropertyOp27
 70
     1
102
RTVSPropertyOp28
 70
     1
102
RTVSPropertyOp29
 70
     1
102
RTVSPropertyOp30
 70
     1
102
RTVSPropertyOp31
 70
     1
102
RTVSPropertyOp32
 70
     1
102
RTVSPropertyOp33
 70
     1
102
RTVSPropertyOp34
 70
     1
102
RTVSPropertyOp35
 70
     1
102
RTVSPropertyOp36
 70
     1
102
RTVSPropertyOp37
 70
     1
102
RTVSPropertyOp38
 70
     1
102
RTVSPropertyOp39
 70
     1
102
RTVSPropertyOp40
 70
     1
102
RTVSPropertyOp41
 70
     1
102
RTVSPropertyOp42
 70
     1
102
RTVSPropertyOp43
 70
     1
102
RTVSPropertyOp44
 70
     1
102
RTVSPropertyOp45
 70
     1
102
RTVSPropertyOp46
 70
     1
102
RTVSPropertyOp47
 70
     1
102
RTVSPropertyOp48
 70
     1
102
RTVSPropertyOp49
 70
     1
102
RTVSPropertyOp50
 70
     1
102
RTVSPropertyOp51
 70
     0
102
RTVSPropertyOp52
 70
     0
102
RTVSPropertyOp53
 70
     1
102
RTVSPropertyOp54
 70
     1
102
RTVSPropertyOp55
 70
     1
102
RTVSPropertyOp56
 70
     1
102
RTVSPropertyOp57
 70
     1
102
RTVSPropertyOp58
 70
     1
102
RTVSPropertyOp59
 70
     1
102
RTVSPropertyOp60
 70
     1
102
RTVSPropertyOp61
 70
     1
102
RTVSPropertyOp62
 70
     1
  0
XRECORD
  5
12053
102
{ACAD_REACTORS
330
12052
102
}
330
12052
100
AcDbXrecord
280
     1
102
RTVSPost2010Prop28
280
     0
102
RTVSPost2010PropOp28
 70
     1
102
RTVSPost2010Prop29
280
     1
102
RTVSPost2010PropOp29
 70
     1
102
RTVSPost2010Prop30
280
     1
102
RTVSPost2010PropOp30
 70
     1
102
RTVSPost2010Prop31
280
     0
102
RTVSPost2010PropOp31
 70
     1
102
RTVSPost2010Prop32
280
     0
102
RTVSPost2010PropOp32
 70
     1
102
RTVSPost2010Prop33
280
     0
102
RTVSPost2010PropOp33
 70
     1
102
RTVSPost2010Prop34
280
     0
102
RTVSPost2010PropOp34
 70
     1
102
RTVSPost2010Prop35
280
     0
102
RTVSPost2010PropOp35
 70
     1
102
RTVSPost2010Prop36
280
     0
102
RTVSPost2010PropOp36
 70
     1
102
RTVSPost2010Prop37
 90
       50
102
RTVSPost2010PropOp37
 70
     1
102
RTVSPost2010Prop38
140
0.0
102
RTVSPost2010PropOp38
 70
     1
102
RTVSPost2010Prop39
140
1.0
102
RTVSPost2010PropOp39
 70
     1
102
RTVSPost2010Prop40
 90
        0
102
RTVSPost2010PropOp40
 70
     1
102
RTVSPost2010Prop41ColorIndex
 90
       18
102
RTVSPost2010Prop41ColorRGB
 90
        0
102
RTVSPost2010PropOp41
 70
     1
102
RTVSPost2010Prop42
 90
       50
102
RTVSPost2010PropOp42
 70
     1
102
RTVSPost2010Prop43
 90
        3
102
RTVSPost2010PropOp43
 70
     1
102
RTVSPost2010Prop44ColorIndex
 90
        5
102
RTVSPost2010Prop44ColorRGB
 90
      255
102
RTVSPost2010PropOp44
 70
     1
102
RTVSPost2010Prop45
280
     0
102
RTVSPost2010PropOp45
 70
     1
102
RTVSPost2010Prop46
 90
       50
102
RTVSPost2010PropOp46
 70
     1
102
RTVSPost2010Prop47
 90
       50
102
RTVSPost2010PropOp47
 70
     1
102
RTVSPost2010Prop48
 90
       50
102
RTVSPost2010PropOp48
 70
     1
102
RTVSPost2010Prop49
280
     0
102
RTVSPost2010PropOp49
 70
     1
102
RTVSPost2010Prop50
 90
       50
102
RTVSPost2010PropOp50
 70
     1
102
RTVSPost2010Prop51ColorIndex
 90
      256
102
RTVSPost2010Prop51ColorRGB
 90
-16777216
102
RTVSPost2010PropOp51
 70
     0
102
RTVSPost2010Prop52
140
1.0
102
RTVSPost2010PropOp52
 70
     0
102
RTVSPost2010Prop53
 90
        2
102
RTVSPost2010PropOp53
 70
     1
102
RTVSPost2010Prop54
  1
strokes_ogs.tif
102
RTVSPost2010PropOp54
 70
     1
102
RTVSPost2010Prop55
280
     0
102
RTVSPost2010PropOp55
 70
     1
102
RTVSPost2010Prop56
140
1.0
102
RTVSPost2010PropOp56
 70
     1
102
RTVSPost2010Prop57
140
1.0
102
RTVSPost2010PropOp57
 70
     1
102
RTVSPropertyOp0
 70
     1
102
RTVSPropertyOp1
 70
     1
102
RTVSPropertyOp2
 70
     1
102
RTVSPropertyOp3
 70
     1
102
RTVSPropertyOp4
 70
     1
102
RTVSPropertyOp5
 70
     1
102
RTVSPropertyOp6
 70
     1
102
RTVSPropertyOp7
 70
     1
102
RTVSPropertyOp8
 70
     1
102
RTVSPropertyOp9
 70
     1
102
RTVSPropertyOp10
 70
     1
102
RTVSPropertyOp11
 70
     1
102
RTVSPropertyOp12
 70
     1
102
RTVSPropertyOp13
 70
     1
102
RTVSPropertyOp14
 70
     1
102
RTVSPropertyOp15
 70
     1
102
RTVSPropertyOp16
 70
     1
102
RTVSPropertyOp17
 70
     1
102
RTVSPropertyOp18
 70
     1
102
RTVSPropertyOp19
 70
     1
102
RTVSPropertyOp20
 70
     1
102
RTVSPropertyOp21
 70
     1
102
RTVSPropertyOp22
 70
     1
102
RTVSPropertyOp23
 70
     1
102
RTVSPropertyOp24
 70
     1
102
RTVSPropertyOp25
 70
     1
102
RTVSPropertyOp26
 70
     1
102
RTVSPropertyOp27
 70
     1
102
RTVSPropertyOp28
 70
     1
102
RTVSPropertyOp29
 70
     1
102
RTVSPropertyOp30
 70
     1
102
RTVSPropertyOp31
 70
     1
102
RTVSPropertyOp32
 70
     1
102
RTVSPropertyOp33
 70
     1
102
RTVSPropertyOp34
 70
     1
102
RTVSPropertyOp35
 70
     1
102
RTVSPropertyOp36
 70
     1
102
RTVSPropertyOp37
 70
     1
102
RTVSPropertyOp38
 70
     1
102
RTVSPropertyOp39
 70
     1
102
RTVSPropertyOp40
 70
     1
102
RTVSPropertyOp41
 70
     1
102
RTVSPropertyOp42
 70
     1
102
RTVSPropertyOp43
 70
     1
102
RTVSPropertyOp44
 70
     1
102
RTVSPropertyOp45
 70
     1
102
RTVSPropertyOp46
 70
     1
102
RTVSPropertyOp47
 70
     1
102
RTVSPropertyOp48
 70
     1
102
RTVSPropertyOp49
 70
     1
102
RTVSPropertyOp50
 70
     1
102
RTVSPropertyOp51
 70
     0
102
RTVSPropertyOp52
 70
     0
102
RTVSPropertyOp53
 70
     1
102
RTVSPropertyOp54
 70
     1
102
RTVSPropertyOp55
 70
     1
102
RTVSPropertyOp56
 70
     1
102
RTVSPropertyOp57
 70
     1
102
RTVSPropertyOp58
 70
     1
102
RTVSPropertyOp59
 70
     1
102
RTVSPropertyOp60
 70
     1
102
RTVSPropertyOp61
 70
     1
102
RTVSPropertyOp62
 70
     1
  0
XRECORD
  5
12051
102
{ACAD_REACTORS
330
12050
102
}
330
12050
100
AcDbXrecord
280
     1
102
RTVSPost2010Prop28
280
     0
102
RTVSPost2010PropOp28
 70
     1
102
RTVSPost2010Prop29
280
     1
102
RTVSPost2010PropOp29
 70
     1
102
RTVSPost2010Prop30
280
     1
102
RTVSPost2010PropOp30
 70
     1
102
RTVSPost2010Prop31
280
     0
102
RTVSPost2010PropOp31
 70
     1
102
RTVSPost2010Prop32
280
     0
102
RTVSPost2010PropOp32
 70
     1
102
RTVSPost2010Prop33
280
     0
102
RTVSPost2010PropOp33
 70
     1
102
RTVSPost2010Prop34
280
     0
102
RTVSPost2010PropOp34
 70
     1
102
RTVSPost2010Prop35
280
     0
102
RTVSPost2010PropOp35
 70
     1
102
RTVSPost2010Prop36
280
     0
102
RTVSPost2010PropOp36
 70
     1
102
RTVSPost2010Prop37
 90
       50
102
RTVSPost2010PropOp37
 70
     1
102
RTVSPost2010Prop38
140
0.0
102
RTVSPost2010PropOp38
 70
     1
102
RTVSPost2010Prop39
140
1.0
102
RTVSPost2010PropOp39
 70
     1
102
RTVSPost2010Prop40
 90
        0
102
RTVSPost2010PropOp40
 70
     1
102
RTVSPost2010Prop41ColorIndex
 90
       18
102
RTVSPost2010Prop41ColorRGB
 90
        0
102
RTVSPost2010PropOp41
 70
     1
102
RTVSPost2010Prop42
 90
       50
102
RTVSPost2010PropOp42
 70
     1
102
RTVSPost2010Prop43
 90
        3
102
RTVSPost2010PropOp43
 70
     1
102
RTVSPost2010Prop44ColorIndex
 90
        5
102
RTVSPost2010Prop44ColorRGB
 90
      255
102
RTVSPost2010PropOp44
 70
     1
102
RTVSPost2010Prop45
280
     0
102
RTVSPost2010PropOp45
 70
     1
102
RTVSPost2010Prop46
 90
       50
102
RTVSPost2010PropOp46
 70
     1
102
RTVSPost2010Prop47
 90
       50
102
RTVSPost2010PropOp47
 70
     1
102
RTVSPost2010Prop48
 90
       50
102
RTVSPost2010PropOp48
 70
     1
102
RTVSPost2010Prop49
280
     0
102
RTVSPost2010PropOp49
 70
     1
102
RTVSPost2010Prop50
 90
       50
102
RTVSPost2010PropOp50
 70
     1
102
RTVSPost2010Prop51ColorIndex
 90
      256
102
RTVSPost2010Prop51ColorRGB
 90
-16777216
102
RTVSPost2010PropOp51
 70
     0
102
RTVSPost2010Prop52
140
1.0
102
RTVSPost2010PropOp52
 70
     0
102
RTVSPost2010Prop53
 90
        2
102
RTVSPost2010PropOp53
 70
     1
102
RTVSPost2010Prop54
  1
strokes_ogs.tif
102
RTVSPost2010PropOp54
 70
     1
102
RTVSPost2010Prop55
280
     0
102
RTVSPost2010PropOp55
 70
     1
102
RTVSPost2010Prop56
140
1.0
102
RTVSPost2010PropOp56
 70
     1
102
RTVSPost2010Prop57
140
1.0
102
RTVSPost2010PropOp57
 70
     1
102
RTVSPropertyOp0
 70
     1
102
RTVSPropertyOp1
 70
     1
102
RTVSPropertyOp2
 70
     1
102
RTVSPropertyOp3
 70
     1
102
RTVSPropertyOp4
 70
     1
102
RTVSPropertyOp5
 70
     1
102
RTVSPropertyOp6
 70
     1
102
RTVSPropertyOp7
 70
     1
102
RTVSPropertyOp8
 70
     1
102
RTVSPropertyOp9
 70
     1
102
RTVSPropertyOp10
 70
     1
102
RTVSPropertyOp11
 70
     1
102
RTVSPropertyOp12
 70
     1
102
RTVSPropertyOp13
 70
     1
102
RTVSPropertyOp14
 70
     1
102
RTVSPropertyOp15
 70
     1
102
RTVSPropertyOp16
 70
     1
102
RTVSPropertyOp17
 70
     1
102
RTVSPropertyOp18
 70
     1
102
RTVSPropertyOp19
 70
     1
102
RTVSPropertyOp20
 70
     1
102
RTVSPropertyOp21
 70
     1
102
RTVSPropertyOp22
 70
     1
102
RTVSPropertyOp23
 70
     1
102
RTVSPropertyOp24
 70
     1
102
RTVSPropertyOp25
 70
     1
102
RTVSPropertyOp26
 70
     1
102
RTVSPropertyOp27
 70
     1
102
RTVSPropertyOp28
 70
     1
102
RTVSPropertyOp29
 70
     1
102
RTVSPropertyOp30
 70
     1
102
RTVSPropertyOp31
 70
     1
102
RTVSPropertyOp32
 70
     1
102
RTVSPropertyOp33
 70
     1
102
RTVSPropertyOp34
 70
     1
102
RTVSPropertyOp35
 70
     1
102
RTVSPropertyOp36
 70
     1
102
RTVSPropertyOp37
 70
     1
102
RTVSPropertyOp38
 70
     1
102
RTVSPropertyOp39
 70
     1
102
RTVSPropertyOp40
 70
     1
102
RTVSPropertyOp41
 70
     1
102
RTVSPropertyOp42
 70
     1
102
RTVSPropertyOp43
 70
     1
102
RTVSPropertyOp44
 70
     1
102
RTVSPropertyOp45
 70
     1
102
RTVSPropertyOp46
 70
     1
102
RTVSPropertyOp47
 70
     1
102
RTVSPropertyOp48
 70
     1
102
RTVSPropertyOp49
 70
     1
102
RTVSPropertyOp50
 70
     1
102
RTVSPropertyOp51
 70
     0
102
RTVSPropertyOp52
 70
     0
102
RTVSPropertyOp53
 70
     1
102
RTVSPropertyOp54
 70
     1
102
RTVSPropertyOp55
 70
     1
102
RTVSPropertyOp56
 70
     1
102
RTVSPropertyOp57
 70
     1
102
RTVSPropertyOp58
 70
     1
102
RTVSPropertyOp59
 70
     1
102
RTVSPropertyOp60
 70
     1
102
RTVSPropertyOp61
 70
     1
102
RTVSPropertyOp62
 70
     1
  0
XRECORD
  5
1204B
102
{ACAD_REACTORS
330
1204A
102
}
330
1204A
100
AcDbXrecord
280
     1
102
RTVSPost2010Prop28
280
     0
102
RTVSPost2010PropOp28
 70
     1
102
RTVSPost2010Prop29
280
     1
102
RTVSPost2010PropOp29
 70
     1
102
RTVSPost2010Prop30
280
     1
102
RTVSPost2010PropOp30
 70
     1
102
RTVSPost2010Prop31
280
     0
102
RTVSPost2010PropOp31
 70
     1
102
RTVSPost2010Prop32
280
     0
102
RTVSPost2010PropOp32
 70
     1
102
RTVSPost2010Prop33
280
     0
102
RTVSPost2010PropOp33
 70
     1
102
RTVSPost2010Prop34
280
     0
102
RTVSPost2010PropOp34
 70
     1
102
RTVSPost2010Prop35
280
     0
102
RTVSPost2010PropOp35
 70
     1
102
RTVSPost2010Prop36
280
     0
102
RTVSPost2010PropOp36
 70
     1
102
RTVSPost2010Prop37
 90
       50
102
RTVSPost2010PropOp37
 70
     1
102
RTVSPost2010Prop38
140
0.0
102
RTVSPost2010PropOp38
 70
     1
102
RTVSPost2010Prop39
140
1.0
102
RTVSPost2010PropOp39
 70
     1
102
RTVSPost2010Prop40
 90
        0
102
RTVSPost2010PropOp40
 70
     1
102
RTVSPost2010Prop41ColorIndex
 90
       18
102
RTVSPost2010Prop41ColorRGB
 90
        0
102
RTVSPost2010PropOp41
 70
     1
102
RTVSPost2010Prop42
 90
       50
102
RTVSPost2010PropOp42
 70
     1
102
RTVSPost2010Prop43
 90
        3
102
RTVSPost2010PropOp43
 70
     1
102
RTVSPost2010Prop44ColorIndex
 90
        5
102
RTVSPost2010Prop44ColorRGB
 90
      255
102
RTVSPost2010PropOp44
 70
     1
102
RTVSPost2010Prop45
280
     0
102
RTVSPost2010PropOp45
 70
     1
102
RTVSPost2010Prop46
 90
       50
102
RTVSPost2010PropOp46
 70
     1
102
RTVSPost2010Prop47
 90
       50
102
RTVSPost2010PropOp47
 70
     1
102
RTVSPost2010Prop48
 90
       50
102
RTVSPost2010PropOp48
 70
     1
102
RTVSPost2010Prop49
280
     0
102
RTVSPost2010PropOp49
 70
     1
102
RTVSPost2010Prop50
 90
       50
102
RTVSPost2010PropOp50
 70
     1
102
RTVSPost2010Prop51ColorIndex
 90
      256
102
RTVSPost2010Prop51ColorRGB
 90
-16777216
102
RTVSPost2010PropOp51
 70
     0
102
RTVSPost2010Prop52
140
1.0
102
RTVSPost2010PropOp52
 70
     0
102
RTVSPost2010Prop53
 90
        2
102
RTVSPost2010PropOp53
 70
     1
102
RTVSPost2010Prop54
  1
strokes_ogs.tif
102
RTVSPost2010PropOp54
 70
     1
102
RTVSPost2010Prop55
280
     0
102
RTVSPost2010PropOp55
 70
     1
102
RTVSPost2010Prop56
140
1.0
102
RTVSPost2010PropOp56
 70
     1
102
RTVSPost2010Prop57
140
1.0
102
RTVSPost2010PropOp57
 70
     1
102
RTVSPropertyOp0
 70
     1
102
RTVSPropertyOp1
 70
     1
102
RTVSPropertyOp2
 70
     1
102
RTVSPropertyOp3
 70
     1
102
RTVSPropertyOp4
 70
     1
102
RTVSPropertyOp5
 70
     1
102
RTVSPropertyOp6
 70
     1
102
RTVSPropertyOp7
 70
     1
102
RTVSPropertyOp8
 70
     1
102
RTVSPropertyOp9
 70
     1
102
RTVSPropertyOp10
 70
     1
102
RTVSPropertyOp11
 70
     1
102
RTVSPropertyOp12
 70
     1
102
RTVSPropertyOp13
 70
     1
102
RTVSPropertyOp14
 70
     1
102
RTVSPropertyOp15
 70
     1
102
RTVSPropertyOp16
 70
     1
102
RTVSPropertyOp17
 70
     1
102
RTVSPropertyOp18
 70
     1
102
RTVSPropertyOp19
 70
     1
102
RTVSPropertyOp20
 70
     1
102
RTVSPropertyOp21
 70
     1
102
RTVSPropertyOp22
 70
     1
102
RTVSPropertyOp23
 70
     1
102
RTVSPropertyOp24
 70
     1
102
RTVSPropertyOp25
 70
     1
102
RTVSPropertyOp26
 70
     1
102
RTVSPropertyOp27
 70
     1
102
RTVSPropertyOp28
 70
     1
102
RTVSPropertyOp29
 70
     1
102
RTVSPropertyOp30
 70
     1
102
RTVSPropertyOp31
 70
     1
102
RTVSPropertyOp32
 70
     1
102
RTVSPropertyOp33
 70
     1
102
RTVSPropertyOp34
 70
     1
102
RTVSPropertyOp35
 70
     1
102
RTVSPropertyOp36
 70
     1
102
RTVSPropertyOp37
 70
     1
102
RTVSPropertyOp38
 70
     1
102
RTVSPropertyOp39
 70
     1
102
RTVSPropertyOp40
 70
     1
102
RTVSPropertyOp41
 70
     1
102
RTVSPropertyOp42
 70
     1
102
RTVSPropertyOp43
 70
     1
102
RTVSPropertyOp44
 70
     1
102
RTVSPropertyOp45
 70
     1
102
RTVSPropertyOp46
 70
     1
102
RTVSPropertyOp47
 70
     1
102
RTVSPropertyOp48
 70
     1
102
RTVSPropertyOp49
 70
     1
102
RTVSPropertyOp50
 70
     1
102
RTVSPropertyOp51
 70
     0
102
RTVSPropertyOp52
 70
     0
102
RTVSPropertyOp53
 70
     1
102
RTVSPropertyOp54
 70
     1
102
RTVSPropertyOp55
 70
     1
102
RTVSPropertyOp56
 70
     1
102
RTVSPropertyOp57
 70
     1
102
RTVSPropertyOp58
 70
     1
102
RTVSPropertyOp59
 70
     1
102
RTVSPropertyOp60
 70
     1
102
RTVSPropertyOp61
 70
     1
102
RTVSPropertyOp62
 70
     1
  0
XRECORD
  5
1204D
102
{ACAD_REACTORS
330
1204C
102
}
330
1204C
100
AcDbXrecord
280
     1
102
RTVSPost2010Prop28
280
     0
102
RTVSPost2010PropOp28
 70
     1
102
RTVSPost2010Prop29
280
     1
102
RTVSPost2010PropOp29
 70
     1
102
RTVSPost2010Prop30
280
     1
102
RTVSPost2010PropOp30
 70
     1
102
RTVSPost2010Prop31
280
     0
102
RTVSPost2010PropOp31
 70
     1
102
RTVSPost2010Prop32
280
     0
102
RTVSPost2010PropOp32
 70
     1
102
RTVSPost2010Prop33
280
     0
102
RTVSPost2010PropOp33
 70
     1
102
RTVSPost2010Prop34
280
     0
102
RTVSPost2010PropOp34
 70
     1
102
RTVSPost2010Prop35
280
     0
102
RTVSPost2010PropOp35
 70
     1
102
RTVSPost2010Prop36
280
     0
102
RTVSPost2010PropOp36
 70
     1
102
RTVSPost2010Prop37
 90
       50
102
RTVSPost2010PropOp37
 70
     1
102
RTVSPost2010Prop38
140
0.0
102
RTVSPost2010PropOp38
 70
     1
102
RTVSPost2010Prop39
140
1.0
102
RTVSPost2010PropOp39
 70
     1
102
RTVSPost2010Prop40
 90
        0
102
RTVSPost2010PropOp40
 70
     1
102
RTVSPost2010Prop41ColorIndex
 90
       18
102
RTVSPost2010Prop41ColorRGB
 90
        0
102
RTVSPost2010PropOp41
 70
     1
102
RTVSPost2010Prop42
 90
       50
102
RTVSPost2010PropOp42
 70
     1
102
RTVSPost2010Prop43
 90
        3
102
RTVSPost2010PropOp43
 70
     1
102
RTVSPost2010Prop44ColorIndex
 90
        5
102
RTVSPost2010Prop44ColorRGB
 90
      255
102
RTVSPost2010PropOp44
 70
     1
102
RTVSPost2010Prop45
280
     0
102
RTVSPost2010PropOp45
 70
     1
102
RTVSPost2010Prop46
 90
       50
102
RTVSPost2010PropOp46
 70
     1
102
RTVSPost2010Prop47
 90
       50
102
RTVSPost2010PropOp47
 70
     1
102
RTVSPost2010Prop48
 90
       50
102
RTVSPost2010PropOp48
 70
     1
102
RTVSPost2010Prop49
280
     0
102
RTVSPost2010PropOp49
 70
     1
102
RTVSPost2010Prop50
 90
       50
102
RTVSPost2010PropOp50
 70
     1
102
RTVSPost2010Prop51ColorIndex
 90
      256
102
RTVSPost2010Prop51ColorRGB
 90
-16777216
102
RTVSPost2010PropOp51
 70
     0
102
RTVSPost2010Prop52
140
1.0
102
RTVSPost2010PropOp52
 70
     0
102
RTVSPost2010Prop53
 90
        2
102
RTVSPost2010PropOp53
 70
     1
102
RTVSPost2010Prop54
  1
strokes_ogs.tif
102
RTVSPost2010PropOp54
 70
     1
102
RTVSPost2010Prop55
280
     0
102
RTVSPost2010PropOp55
 70
     1
102
RTVSPost2010Prop56
140
1.0
102
RTVSPost2010PropOp56
 70
     1
102
RTVSPost2010Prop57
140
1.0
102
RTVSPost2010PropOp57
 70
     1
102
RTVSPropertyOp0
 70
     1
102
RTVSPropertyOp1
 70
     1
102
RTVSPropertyOp2
 70
     1
102
RTVSPropertyOp3
 70
     1
102
RTVSPropertyOp4
 70
     1
102
RTVSPropertyOp5
 70
     1
102
RTVSPropertyOp6
 70
     1
102
RTVSPropertyOp7
 70
     1
102
RTVSPropertyOp8
 70
     1
102
RTVSPropertyOp9
 70
     1
102
RTVSPropertyOp10
 70
     1
102
RTVSPropertyOp11
 70
     1
102
RTVSPropertyOp12
 70
     1
102
RTVSPropertyOp13
 70
     1
102
RTVSPropertyOp14
 70
     1
102
RTVSPropertyOp15
 70
     1
102
RTVSPropertyOp16
 70
     1
102
RTVSPropertyOp17
 70
     1
102
RTVSPropertyOp18
 70
     1
102
RTVSPropertyOp19
 70
     1
102
RTVSPropertyOp20
 70
     1
102
RTVSPropertyOp21
 70
     1
102
RTVSPropertyOp22
 70
     1
102
RTVSPropertyOp23
 70
     1
102
RTVSPropertyOp24
 70
     1
102
RTVSPropertyOp25
 70
     1
102
RTVSPropertyOp26
 70
     1
102
RTVSPropertyOp27
 70
     1
102
RTVSPropertyOp28
 70
     1
102
RTVSPropertyOp29
 70
     1
102
RTVSPropertyOp30
 70
     1
102
RTVSPropertyOp31
 70
     1
102
RTVSPropertyOp32
 70
     1
102
RTVSPropertyOp33
 70
     1
102
RTVSPropertyOp34
 70
     1
102
RTVSPropertyOp35
 70
     1
102
RTVSPropertyOp36
 70
     1
102
RTVSPropertyOp37
 70
     1
102
RTVSPropertyOp38
 70
     1
102
RTVSPropertyOp39
 70
     1
102
RTVSPropertyOp40
 70
     1
102
RTVSPropertyOp41
 70
     1
102
RTVSPropertyOp42
 70
     1
102
RTVSPropertyOp43
 70
     1
102
RTVSPropertyOp44
 70
     1
102
RTVSPropertyOp45
 70
     1
102
RTVSPropertyOp46
 70
     1
102
RTVSPropertyOp47
 70
     1
102
RTVSPropertyOp48
 70
     1
102
RTVSPropertyOp49
 70
     1
102
RTVSPropertyOp50
 70
     1
102
RTVSPropertyOp51
 70
     0
102
RTVSPropertyOp52
 70
     0
102
RTVSPropertyOp53
 70
     1
102
RTVSPropertyOp54
 70
     1
102
RTVSPropertyOp55
 70
     1
102
RTVSPropertyOp56
 70
     1
102
RTVSPropertyOp57
 70
     1
102
RTVSPropertyOp58
 70
     1
102
RTVSPropertyOp59
 70
     1
102
RTVSPropertyOp60
 70
     1
102
RTVSPropertyOp61
 70
     1
102
RTVSPropertyOp62
 70
     1
  0
XRECORD
  5
1203B
102
{ACAD_REACTORS
330
1203A
102
}
330
1203A
100
AcDbXrecord
280
     1
102
RTVSPost2010Prop28
280
     0
102
RTVSPost2010PropOp28
 70
     1
102
RTVSPost2010Prop29
280
     1
102
RTVSPost2010PropOp29
 70
     1
102
RTVSPost2010Prop30
280
     1
102
RTVSPost2010PropOp30
 70
     1
102
RTVSPost2010Prop31
280
     0
102
RTVSPost2010PropOp31
 70
     1
102
RTVSPost2010Prop32
280
     0
102
RTVSPost2010PropOp32
 70
     1
102
RTVSPost2010Prop33
280
     0
102
RTVSPost2010PropOp33
 70
     1
102
RTVSPost2010Prop34
280
     0
102
RTVSPost2010PropOp34
 70
     1
102
RTVSPost2010Prop35
280
     0
102
RTVSPost2010PropOp35
 70
     1
102
RTVSPost2010Prop36
280
     0
102
RTVSPost2010PropOp36
 70
     1
102
RTVSPost2010Prop37
 90
       50
102
RTVSPost2010PropOp37
 70
     1
102
RTVSPost2010Prop38
140
0.0
102
RTVSPost2010PropOp38
 70
     1
102
RTVSPost2010Prop39
140
1.0
102
RTVSPost2010PropOp39
 70
     1
102
RTVSPost2010Prop40
 90
        0
102
RTVSPost2010PropOp40
 70
     1
102
RTVSPost2010Prop41ColorIndex
 90
       18
102
RTVSPost2010Prop41ColorRGB
 90
        0
102
RTVSPost2010PropOp41
 70
     1
102
RTVSPost2010Prop42
 90
       50
102
RTVSPost2010PropOp42
 70
     1
102
RTVSPost2010Prop43
 90
        3
102
RTVSPost2010PropOp43
 70
     1
102
RTVSPost2010Prop44ColorIndex
 90
        5
102
RTVSPost2010Prop44ColorRGB
 90
      255
102
RTVSPost2010PropOp44
 70
     1
102
RTVSPost2010Prop45
280
     0
102
RTVSPost2010PropOp45
 70
     1
102
RTVSPost2010Prop46
 90
       50
102
RTVSPost2010PropOp46
 70
     1
102
RTVSPost2010Prop47
 90
       50
102
RTVSPost2010PropOp47
 70
     1
102
RTVSPost2010Prop48
 90
       50
102
RTVSPost2010PropOp48
 70
     1
102
RTVSPost2010Prop49
280
     0
102
RTVSPost2010PropOp49
 70
     1
102
RTVSPost2010Prop50
 90
       50
102
RTVSPost2010PropOp50
 70
     1
102
RTVSPost2010Prop51ColorIndex
 90
      256
102
RTVSPost2010Prop51ColorRGB
 90
-16777216
102
RTVSPost2010PropOp51
 70
     0
102
RTVSPost2010Prop52
140
1.0
102
RTVSPost2010PropOp52
 70
     0
102
RTVSPost2010Prop53
 90
        2
102
RTVSPost2010PropOp53
 70
     1
102
RTVSPost2010Prop54
  1
strokes_ogs.tif
102
RTVSPost2010PropOp54
 70
     1
102
RTVSPost2010Prop55
280
     0
102
RTVSPost2010PropOp55
 70
     1
102
RTVSPost2010Prop56
140
1.0
102
RTVSPost2010PropOp56
 70
     1
102
RTVSPost2010Prop57
140
1.0
102
RTVSPost2010PropOp57
 70
     1
102
RTVSPropertyOp0
 70
     1
102
RTVSPropertyOp1
 70
     1
102
RTVSPropertyOp2
 70
     1
102
RTVSPropertyOp3
 70
     1
102
RTVSPropertyOp4
 70
     1
102
RTVSPropertyOp5
 70
     1
102
RTVSPropertyOp6
 70
     1
102
RTVSPropertyOp7
 70
     1
102
RTVSPropertyOp8
 70
     1
102
RTVSPropertyOp9
 70
     1
102
RTVSPropertyOp10
 70
     1
102
RTVSPropertyOp11
 70
     1
102
RTVSPropertyOp12
 70
     1
102
RTVSPropertyOp13
 70
     1
102
RTVSPropertyOp14
 70
     1
102
RTVSPropertyOp15
 70
     1
102
RTVSPropertyOp16
 70
     1
102
RTVSPropertyOp17
 70
     1
102
RTVSPropertyOp18
 70
     1
102
RTVSPropertyOp19
 70
     1
102
RTVSPropertyOp20
 70
     1
102
RTVSPropertyOp21
 70
     1
102
RTVSPropertyOp22
 70
     1
102
RTVSPropertyOp23
 70
     1
102
RTVSPropertyOp24
 70
     1
102
RTVSPropertyOp25
 70
     1
102
RTVSPropertyOp26
 70
     1
102
RTVSPropertyOp27
 70
     1
102
RTVSPropertyOp28
 70
     1
102
RTVSPropertyOp29
 70
     1
102
RTVSPropertyOp30
 70
     1
102
RTVSPropertyOp31
 70
     1
102
RTVSPropertyOp32
 70
     1
102
RTVSPropertyOp33
 70
     1
102
RTVSPropertyOp34
 70
     1
102
RTVSPropertyOp35
 70
     1
102
RTVSPropertyOp36
 70
     1
102
RTVSPropertyOp37
 70
     1
102
RTVSPropertyOp38
 70
     1
102
RTVSPropertyOp39
 70
     1
102
RTVSPropertyOp40
 70
     1
102
RTVSPropertyOp41
 70
     1
102
RTVSPropertyOp42
 70
     1
102
RTVSPropertyOp43
 70
     1
102
RTVSPropertyOp44
 70
     1
102
RTVSPropertyOp45
 70
     1
102
RTVSPropertyOp46
 70
     1
102
RTVSPropertyOp47
 70
     1
102
RTVSPropertyOp48
 70
     1
102
RTVSPropertyOp49
 70
     1
102
RTVSPropertyOp50
 70
     1
102
RTVSPropertyOp51
 70
     0
102
RTVSPropertyOp52
 70
     0
102
RTVSPropertyOp53
 70
     1
102
RTVSPropertyOp54
 70
     1
102
RTVSPropertyOp55
 70
     1
102
RTVSPropertyOp56
 70
     1
102
RTVSPropertyOp57
 70
     1
102
RTVSPropertyOp58
 70
     1
102
RTVSPropertyOp59
 70
     1
102
RTVSPropertyOp60
 70
     1
102
RTVSPropertyOp61
 70
     1
102
RTVSPropertyOp62
 70
     1
  0
XRECORD
  5
1202F
102
{ACAD_REACTORS
330
1202E
102
}
330
1202E
100
AcDbXrecord
280
     1
102
RTVSPost2010Prop28
280
     0
102
RTVSPost2010PropOp28
 70
     1
102
RTVSPost2010Prop29
280
     1
102
RTVSPost2010PropOp29
 70
     1
102
RTVSPost2010Prop30
280
     1
102
RTVSPost2010PropOp30
 70
     1
102
RTVSPost2010Prop31
280
     0
102
RTVSPost2010PropOp31
 70
     1
102
RTVSPost2010Prop32
280
     0
102
RTVSPost2010PropOp32
 70
     1
102
RTVSPost2010Prop33
280
     0
102
RTVSPost2010PropOp33
 70
     1
102
RTVSPost2010Prop34
280
     0
102
RTVSPost2010PropOp34
 70
     1
102
RTVSPost2010Prop35
280
     0
102
RTVSPost2010PropOp35
 70
     1
102
RTVSPost2010Prop36
280
     0
102
RTVSPost2010PropOp36
 70
     1
102
RTVSPost2010Prop37
 90
       50
102
RTVSPost2010PropOp37
 70
     1
102
RTVSPost2010Prop38
140
0.0
102
RTVSPost2010PropOp38
 70
     1
102
RTVSPost2010Prop39
140
1.0
102
RTVSPost2010PropOp39
 70
     1
102
RTVSPost2010Prop40
 90
        0
102
RTVSPost2010PropOp40
 70
     1
102
RTVSPost2010Prop41ColorIndex
 90
       18
102
RTVSPost2010Prop41ColorRGB
 90
        0
102
RTVSPost2010PropOp41
 70
     1
102
RTVSPost2010Prop42
 90
       50
102
RTVSPost2010PropOp42
 70
     1
102
RTVSPost2010Prop43
 90
        3
102
RTVSPost2010PropOp43
 70
     1
102
RTVSPost2010Prop44ColorIndex
 90
        5
102
RTVSPost2010Prop44ColorRGB
 90
      255
102
RTVSPost2010PropOp44
 70
     1
102
RTVSPost2010Prop45
280
     0
102
RTVSPost2010PropOp45
 70
     1
102
RTVSPost2010Prop46
 90
       50
102
RTVSPost2010PropOp46
 70
     1
102
RTVSPost2010Prop47
 90
       50
102
RTVSPost2010PropOp47
 70
     1
102
RTVSPost2010Prop48
 90
       50
102
RTVSPost2010PropOp48
 70
     1
102
RTVSPost2010Prop49
280
     0
102
RTVSPost2010PropOp49
 70
     1
102
RTVSPost2010Prop50
 90
       50
102
RTVSPost2010PropOp50
 70
     1
102
RTVSPost2010Prop51ColorIndex
 90
      256
102
RTVSPost2010Prop51ColorRGB
 90
-16777216
102
RTVSPost2010PropOp51
 70
     0
102
RTVSPost2010Prop52
140
1.0
102
RTVSPost2010PropOp52
 70
     0
102
RTVSPost2010Prop53
 90
        2
102
RTVSPost2010PropOp53
 70
     1
102
RTVSPost2010Prop54
  1
strokes_ogs.tif
102
RTVSPost2010PropOp54
 70
     1
102
RTVSPost2010Prop55
280
     0
102
RTVSPost2010PropOp55
 70
     1
102
RTVSPost2010Prop56
140
1.0
102
RTVSPost2010PropOp56
 70
     1
102
RTVSPost2010Prop57
140
1.0
102
RTVSPost2010PropOp57
 70
     1
102
RTVSPropertyOp0
 70
     1
102
RTVSPropertyOp1
 70
     1
102
RTVSPropertyOp2
 70
     1
102
RTVSPropertyOp3
 70
     1
102
RTVSPropertyOp4
 70
     1
102
RTVSPropertyOp5
 70
     1
102
RTVSPropertyOp6
 70
     1
102
RTVSPropertyOp7
 70
     1
102
RTVSPropertyOp8
 70
     1
102
RTVSPropertyOp9
 70
     1
102
RTVSPropertyOp10
 70
     1
102
RTVSPropertyOp11
 70
     1
102
RTVSPropertyOp12
 70
     1
102
RTVSPropertyOp13
 70
     1
102
RTVSPropertyOp14
 70
     1
102
RTVSPropertyOp15
 70
     1
102
RTVSPropertyOp16
 70
     1
102
RTVSPropertyOp17
 70
     1
102
RTVSPropertyOp18
 70
     1
102
RTVSPropertyOp19
 70
     1
102
RTVSPropertyOp20
 70
     1
102
RTVSPropertyOp21
 70
     1
102
RTVSPropertyOp22
 70
     1
102
RTVSPropertyOp23
 70
     1
102
RTVSPropertyOp24
 70
     1
102
RTVSPropertyOp25
 70
     1
102
RTVSPropertyOp26
 70
     1
102
RTVSPropertyOp27
 70
     1
102
RTVSPropertyOp28
 70
     1
102
RTVSPropertyOp29
 70
     1
102
RTVSPropertyOp30
 70
     1
102
RTVSPropertyOp31
 70
     1
102
RTVSPropertyOp32
 70
     1
102
RTVSPropertyOp33
 70
     1
102
RTVSPropertyOp34
 70
     1
102
RTVSPropertyOp35
 70
     1
102
RTVSPropertyOp36
 70
     1
102
RTVSPropertyOp37
 70
     1
102
RTVSPropertyOp38
 70
     1
102
RTVSPropertyOp39
 70
     1
102
RTVSPropertyOp40
 70
     1
102
RTVSPropertyOp41
 70
     1
102
RTVSPropertyOp42
 70
     1
102
RTVSPropertyOp43
 70
     1
102
RTVSPropertyOp44
 70
     1
102
RTVSPropertyOp45
 70
     1
102
RTVSPropertyOp46
 70
     1
102
RTVSPropertyOp47
 70
     1
102
RTVSPropertyOp48
 70
     1
102
RTVSPropertyOp49
 70
     1
102
RTVSPropertyOp50
 70
     1
102
RTVSPropertyOp51
 70
     0
102
RTVSPropertyOp52
 70
     0
102
RTVSPropertyOp53
 70
     1
102
RTVSPropertyOp54
 70
     1
102
RTVSPropertyOp55
 70
     1
102
RTVSPropertyOp56
 70
     1
102
RTVSPropertyOp57
 70
     1
102
RTVSPropertyOp58
 70
     1
102
RTVSPropertyOp59
 70
     1
102
RTVSPropertyOp60
 70
     1
102
RTVSPropertyOp61
 70
     1
102
RTVSPropertyOp62
 70
     1
  0
XRECORD
  5
1204F
102
{ACAD_REACTORS
330
1204E
102
}
330
1204E
100
AcDbXrecord
280
     1
102
RTVSPost2010Prop28
280
     0
102
RTVSPost2010PropOp28
 70
     1
102
RTVSPost2010Prop29
280
     1
102
RTVSPost2010PropOp29
 70
     1
102
RTVSPost2010Prop30
280
     1
102
RTVSPost2010PropOp30
 70
     1
102
RTVSPost2010Prop31
280
     0
102
RTVSPost2010PropOp31
 70
     1
102
RTVSPost2010Prop32
280
     0
102
RTVSPost2010PropOp32
 70
     1
102
RTVSPost2010Prop33
280
     0
102
RTVSPost2010PropOp33
 70
     1
102
RTVSPost2010Prop34
280
     0
102
RTVSPost2010PropOp34
 70
     1
102
RTVSPost2010Prop35
280
     0
102
RTVSPost2010PropOp35
 70
     1
102
RTVSPost2010Prop36
280
     0
102
RTVSPost2010PropOp36
 70
     1
102
RTVSPost2010Prop37
 90
       50
102
RTVSPost2010PropOp37
 70
     1
102
RTVSPost2010Prop38
140
0.0
102
RTVSPost2010PropOp38
 70
     1
102
RTVSPost2010Prop39
140
1.0
102
RTVSPost2010PropOp39
 70
     1
102
RTVSPost2010Prop40
 90
        0
102
RTVSPost2010PropOp40
 70
     1
102
RTVSPost2010Prop41ColorIndex
 90
       18
102
RTVSPost2010Prop41ColorRGB
 90
        0
102
RTVSPost2010PropOp41
 70
     1
102
RTVSPost2010Prop42
 90
       50
102
RTVSPost2010PropOp42
 70
     1
102
RTVSPost2010Prop43
 90
        3
102
RTVSPost2010PropOp43
 70
     1
102
RTVSPost2010Prop44ColorIndex
 90
        5
102
RTVSPost2010Prop44ColorRGB
 90
      255
102
RTVSPost2010PropOp44
 70
     1
102
RTVSPost2010Prop45
280
     0
102
RTVSPost2010PropOp45
 70
     1
102
RTVSPost2010Prop46
 90
       50
102
RTVSPost2010PropOp46
 70
     1
102
RTVSPost2010Prop47
 90
       50
102
RTVSPost2010PropOp47
 70
     1
102
RTVSPost2010Prop48
 90
       50
102
RTVSPost2010PropOp48
 70
     1
102
RTVSPost2010Prop49
280
     0
102
RTVSPost2010PropOp49
 70
     1
102
RTVSPost2010Prop50
 90
       50
102
RTVSPost2010PropOp50
 70
     1
102
RTVSPost2010Prop51ColorIndex
 90
      256
102
RTVSPost2010Prop51ColorRGB
 90
-16777216
102
RTVSPost2010PropOp51
 70
     0
102
RTVSPost2010Prop52
140
1.0
102
RTVSPost2010PropOp52
 70
     0
102
RTVSPost2010Prop53
 90
        2
102
RTVSPost2010PropOp53
 70
     1
102
RTVSPost2010Prop54
  1
strokes_ogs.tif
102
RTVSPost2010PropOp54
 70
     1
102
RTVSPost2010Prop55
280
     0
102
RTVSPost2010PropOp55
 70
     1
102
RTVSPost2010Prop56
140
1.0
102
RTVSPost2010PropOp56
 70
     1
102
RTVSPost2010Prop57
140
1.0
102
RTVSPost2010PropOp57
 70
     1
102
RTVSPropertyOp0
 70
     1
102
RTVSPropertyOp1
 70
     1
102
RTVSPropertyOp2
 70
     1
102
RTVSPropertyOp3
 70
     1
102
RTVSPropertyOp4
 70
     1
102
RTVSPropertyOp5
 70
     1
102
RTVSPropertyOp6
 70
     1
102
RTVSPropertyOp7
 70
     1
102
RTVSPropertyOp8
 70
     1
102
RTVSPropertyOp9
 70
     1
102
RTVSPropertyOp10
 70
     1
102
RTVSPropertyOp11
 70
     1
102
RTVSPropertyOp12
 70
     1
102
RTVSPropertyOp13
 70
     1
102
RTVSPropertyOp14
 70
     1
102
RTVSPropertyOp15
 70
     1
102
RTVSPropertyOp16
 70
     1
102
RTVSPropertyOp17
 70
     1
102
RTVSPropertyOp18
 70
     1
102
RTVSPropertyOp19
 70
     1
102
RTVSPropertyOp20
 70
     1
102
RTVSPropertyOp21
 70
     1
102
RTVSPropertyOp22
 70
     1
102
RTVSPropertyOp23
 70
     1
102
RTVSPropertyOp24
 70
     1
102
RTVSPropertyOp25
 70
     1
102
RTVSPropertyOp26
 70
     1
102
RTVSPropertyOp27
 70
     1
102
RTVSPropertyOp28
 70
     1
102
RTVSPropertyOp29
 70
     1
102
RTVSPropertyOp30
 70
     1
102
RTVSPropertyOp31
 70
     1
102
RTVSPropertyOp32
 70
     1
102
RTVSPropertyOp33
 70
     1
102
RTVSPropertyOp34
 70
     1
102
RTVSPropertyOp35
 70
     1
102
RTVSPropertyOp36
 70
     1
102
RTVSPropertyOp37
 70
     1
102
RTVSPropertyOp38
 70
     1
102
RTVSPropertyOp39
 70
     1
102
RTVSPropertyOp40
 70
     1
102
RTVSPropertyOp41
 70
     1
102
RTVSPropertyOp42
 70
     1
102
RTVSPropertyOp43
 70
     1
102
RTVSPropertyOp44
 70
     1
102
RTVSPropertyOp45
 70
     1
102
RTVSPropertyOp46
 70
     1
102
RTVSPropertyOp47
 70
     1
102
RTVSPropertyOp48
 70
     1
102
RTVSPropertyOp49
 70
     1
102
RTVSPropertyOp50
 70
     1
102
RTVSPropertyOp51
 70
     0
102
RTVSPropertyOp52
 70
     0
102
RTVSPropertyOp53
 70
     1
102
RTVSPropertyOp54
 70
     1
102
RTVSPropertyOp55
 70
     1
102
RTVSPropertyOp56
 70
     1
102
RTVSPropertyOp57
 70
     1
102
RTVSPropertyOp58
 70
     1
102
RTVSPropertyOp59
 70
     1
102
RTVSPropertyOp60
 70
     1
102
RTVSPropertyOp61
 70
     1
102
RTVSPropertyOp62
 70
     1
  0
ENDSEC
  0
EOF
